Home‎ > ‎Tabs‎ > ‎Wowee Zowee‎ > ‎

Rattled by the Rush

Author/Artist: Pavement
Title: Rattled by the Rush
Album: Wowee Zowee
Tuning: DADABE


Intro:

E|--------------------------|
B|--------------------------|
A|--------------------------|
D|--------------------------|
A|--4---0--4--5--7---7\-----|
D|-----------------------0--|



Verse:

E|------------------------------------------------------------------------|
B|--4--2--4----4----4---2--4---4--2---4---2--4---4--2---3---2--3---5--4---|
A|--2--2--2----2----0---0--0---0--0---0---0--0---0--0---0---0--0---2--2---|
D|--4--4--4----4----4---4--4---4--4---4---4--4---4--4---0---0--0---2--2---|
A|--2--2--2----2----0---0--0---0--0---0---0--0---0--0---0---0--0---2--2---|
D|------------------------------------------------------0---0--0---2--2---|



Pre-Chorus:

E|---------------------------------|
B|--4------4------4----------------|
A|--2------0------0----------------|
D|--4------4------4------0----2----|
A|--2------0------0------0----2----|
D|-----------------------0----2----|



Chorus:

E|--------------------------------------------------------------|
B|--------------------------------------------------------------|
A|--------------------------------------------------------------|
D|--0---9--9------0--0---7--7------2--2---9--9------11-\-7--7---|
A|--0---9--9------0--0---7--7------2--2---9--9------11-\-7--7---|
D|--0---9--9------0--0---7--7------2--2---9--9------11-\-7--7---|


E|--------------------------------------------------------------------------|
B|--------------------------------------------------------------------------|
A|--------------------------------------------------------------------------|
D|-0--0---9--9------0--0---7--7------2--2---9--9------11--7--7--5--7--5--2--|
A|-0--0---9--9------0--0---7--7------2--2---9--9------11--7--7--5--7--5--2--|
D|-0--0---9--9------0--0---7--7------2--2---9--9------11--7--7--5--7--5--2--|



Solo Rhythm:

E|-------------------|-------------------------------|
B|-------------------|-------------------------------|
A|-------------------|-------------------------------|
D|--11---7---7---5---|--11---7--11--12--14--14--14---|
A|--11---7---7---5---|--11---7--11--12--14--14--14---|
D|--11---7---7---5---|--11---7--11--12--14--14--14---|
    [Play 3 times]