Home‎ > ‎Tabs‎ > ‎Brighten the Corners‎ > ‎

Starlings of the Slipstream

Author/Artist: Pavement
Title: Starlings of the Slipstream
Album: Brighten the Corners
Tuning: DADABE


Verse:

E|--0-------------------------9-------------------------------------------|
B|--2------5------10---12--------10----10--9---7----7-7-7-7-7-7-7-7-7-7-7-|
A|--0------0-------9------9---------9---9--7---5----5-5-5-5-5-5-5-5-5-5-5-|
D|--2------6------11-------------------11--9---7----7-7-7-7-7-7-7-7-7-7-7-|
A|--0------7-------9--------------------9--7---5----5-5-5-5-5-5-5-5-5-5-5-|
D|---------------------------------------------0----0-0-0-0-0-0-0-0-0-0-0-|



Chorus:

E|--------------------------------------------------|
B|--------------------------------------------------|
A|--4--4--4--4--4--0--0--0--7--7--7--7--7--0--0--0--|
D|--4--4--4--4--4--0--0--0--7--7--7--7--7--0--0--0--|
A|--2--2--2--2--2--0--0--0--5--5--5--5--5--0--0--0--|
D|--------------------------------------------------|



2nd Verse:

E|--0----0---------0------------------------------------------------------|
B|--2-------5--------------10---12----12------10--9---7---7-7-7-7-7-7-7-7-|
A|--0-------0----5---0------9------9-----------9--7---5---5-5-5-5-5-5-5-5-|
D|--2-------6----------6---11------------11---11--9---7---7-7-7-7-7-7-7-7-|
A|--0-------7---------------9------------------9--7---5---5-5-5-5-5-5-5-5-|
D|----------------------------------------------------0---0-0-0-0-0-0-0-0-|



Bridge:

E|----------------------------------|
B|----------------------------------|
A|----------------------------------|
D|----------------------------------|
A|--2-2-2-2-2-0-0-------------0-0-0-|
D|----------------0---0-0-0-0-------|