Home‎ > ‎Tabs‎ > ‎Westing by Musket and Sextant‎ > ‎

Summer Baby

Author/Artist: Pavement
Title: Summer Baby
Album: Westing by Musket and Sextant
Tuning: DADABE



Intro Solo (0:00):

E|------------------------------------------------------------------------|
B|------------------------------------------------------------------------|
A|--7---7---7-7-7-5--7-7-7-7--5-5-5--7--7--7-7-7-5--4-5-0----------0-0-0--|
D|---------------------------------------------------------5---5-5--------|
A|------------------------------------------------------------------------|
D|------------------------------------------------------------------------|


E|------------------------------------------------------|
B|------------------------------------------------------|
A|--4-0-----0---4-0---------0------0---0---0---0-0------|
D|--------5-----------5-0-----0------0---0---0-----0-0--|
A|------------------------------------------------------|
D|------------------------------------------------------|


Verse (0:20):

E|---------------------------------------------------------------------------------------------------------|
B|---------------------------------------------------------------------------------------------------------|
A|---------------------------------------------------------------------------------------------------------|
D|---------------------------------------------------------------------------------------------------------|
A|-0-------------------------------------0--0------------------------------------------------------5-------|
D|-0-------------------------------------0--0----------------------------------------------------------0---|
   Ice baby, I saw your girlfriend and she's    eating her fingers like they're just another meal, but she


E|----------------------------------------------------------------------------------------|
B|----------------------------------------------------------------------------------------|
A|----------------------------------------------------------------------------------------|
D|----------------------------------------------------------------------------------------|
A|-0-----------------------------------0-0-0----------------------------------------------|
D|-0-----------------------------------0-0-0----------------------------------------------|
   Waits there   in the levee wash she's     mixing cocktails with a plastic-tipped cigar



Solo (0:40):

E|----------------------------------------------------|
B|----------------------------------------------------|
A|--7---7-7-7-7-7-5--7-7-7-7-7--7--7--7-7-7--5--5--5--|
D|----------------------------------------------------|
A|----------------------------------------------------|
D|----------------------------------------------------|


E|--------------------------------------------------------------------------|
B|--------------------------------------------------------------------------|
A|-5---4---5-4---5---5--7--7--7--7--7--9-9-9--9--9--9--7--10---9---10---9---|
D|--------------------------------------------------------------------------|
A|--------------------------------------------------------------------------|
D|--------------------------------------------------------------------------|


E|----------------------------------|
B|----------------------------------|
A|--12*\--/-12*-----------12*-------|
D|----------------------------------|
A|----------------------------------|
D|----------------------------------|
   (*tremelo pick)



Verse (1:00):

E|------------------------------------------------------------------------------------------------------------|
B|------------------------------------------------------------------------------------------------------------|
A|------------------------------------------------------------------------------------------------------------|
D|------------------------------------------------------------------------------------------------------------|
A|----0------------------------------5-----0------------------------------------------------------------------|
D|----0---------------------------------0--0------------------------------------------------------------------|
   My eyes stick to all those shiny robes you wear on the protein delta strip in an abandoned houseboat I will


E|----------------------------------------------------------------------------------------------------------|
B|----------------------------------------------------------------------------------------------------------|
A|----------------------------------------------------------------------------------------------------------|
D|----------------------------------------------------------------------------------------------------------|
A|----------------------------------------------------------------------------------------------------------|
D|-0--------------------------------0--0--0-----------------------------------------------------------------|
   Wait there    I'll be waiting forever I'm waiting waiting waiting waiting waiting waiting waiting waiting



Solo (1:20):

E|--------------------------------------------------------------------------|
B|--------------------------------------------------------------------------|
A|--9---9---9-10---9---12---11---9---9b10r9---7---5-5-5-5b6r5--4b5r4-0---0--|
D|--------------------------------------------------------------------------|
A|--------------------------------------------------------------------------|
D|--------------------------------------------------------------------------|
      Go

E|-------------------------------------------------------------|
B|-------------------------------------------------------------|
A|-5/7-7-7/9--9/10--10--10/12--12-12--14-b16-r14-12--12--12-12-|
D|-------------------------------------------------------------|
A|-------------------------------------------------------------|
D|-------------------------------------------------------------|


E|---------------------------------------------------------------------|
B|-/16--15-15\--15-15\--/15\--/15\--/16\15--15-15-15-15-15-15-15-15-15-|
A|---------------------------------------------------------------------|
D|---------------------------------------------------------------------|
A|---------------------------------------------------------------------|
D|---------------------------------------------------------------------|


E|-------------------------------------------------------------------|
B|-------------------------------------------------------------------|
A|-12-12-12-12-12----------------------------------------------------|
D|--------------0-----------0--2/4--2------2--4--5--4--2--0-----0----|
A|--------------0-------0h2------------0---------------------2-------|
D|--------------0----------------------------------------------------|


E|----------------------------------------------------------------|
B|----------------------------------------------------------------|
A|-----------------------------------------7---5---7b8r7--5--7/9--|
D|------0--2--4/5--4--5--/7--5--7----5-5-5------------------------|
A|--0h2-----------------------------------------------------------|
D|----------------------------------------------------------------|


E|------------------------------------------------|
B|------------------------------------------------|
A|-9/10-10-10/12-12-12-12-10h12-12-12-12/15-15-15-|
D|------------------------------------------------|
A|------------------------------------------------|
D|------------------------------------------------|


E|-----------------------------------------------|
B|-----------------------------------------------|
A|-15-15-15-15-15-15-15-15-15-15-15-15-15\12-----|
D|-----------------------------------------------|
A|-----------------------------------------------|
D|-------------------------------------------15\-|




Bridge (1:59):

E|--------------------------------------------------------------|
B|--------------------------------------------------------------|
A|--------------------------------------------------------------|
D|--------------------------------------------------------------|
A|-------------------------------0------------------------------|
D|-0-----------------------0--0--0------------------------------|
     Minerals, ice deposit daily, drop off the first shiny robe


E|-------------------------------------------------------------------------------|
B|-------------------------------------------------------------------------------|
A|--------------------------------------------------7----------------------------|
D|--------------------------------------------------0----------------------------|
A|-0--0---------------------------------------------0----------------------------|
D|-0--0---------------------------------------------0----------------------------|
         I've got a lot of things I want to sell, but not here babe    don't go



Solo (2:19):

   (*tremelo pick)
E|------------------------------------------------------------------------------|
B|---------------------15*------15*--15b17r15---13/15\14-12-14-12-15b17r15------|
A|--12*------14*--12*-------12*--------------------------------------------0--0-|
D|------------------------------------------------------------------------------|
A|------------------------------------------------------------------------------|
D|------------------------------------------------------------------------------|


E|--------------------------------------------------|
B|--------------------------------------------------|
A|--0-0-0-----2--4/5\4--0--0--4/7--7--5---7-7-7--9--|
D|--------------------------------------------------|
A|--------------------------------------------------|
D|--------------------------------------------------|
  Every time I sit around I find I'm shot

                                                        (*tremelo pick)
E|-------------------------------------------------------------------------------------------|
B|-------------------------------------------------------------------------------------------|
A|--9b10r9--7--9b10r9--7--9b10r9--7---9----12-12-12---/12*-----------------------------------|
D|--------------------------------------0----------------------------------------------------|
A|-------------------------------------------------------------------------------------------|
D|-------------------------------------------------------------------------------------------|
  Every time I sit around I find I'm shot       every time I sit around my friend...



Chorus (2:48):
                                                    [Play twice]
E|-------------------------------------------|----------------------------------------|
B|-------------------------------------------|----------------------------------------|
A|--------------7--7--7--5----4--5--7--5--0--|-----------7--7--7--5----4--5--7--5--0--|
D|--------------x--x--x--x----x--x--x--x--x--|-----------x--x--x--x----x--x--x--x--x--|
A|--------------7--7--7--5----4--5--7--5--0--|-----------7--7--7--5----4--5--7--5--0--|
D|--0----------------------------------------|----------------------------------------|
       Summer babe                              Summer babe

E|----------------------------------------||
B|----------------------------------------||
A|----------7--7--7--5----4---7-----------||
D|----------x--x--x--x----x---x--0--------||
A|----------7--7--7--5----4---7--0--------||
D|-------------------------------0--------||
   Summer babe