Home‎ > ‎Tabs‎ > ‎Stephen Malkmus‎ > ‎Face The Truth‎ > ‎

No More Shoes

Author/Artist: Stephen Malkmus
Title: No More Shoes
Album: Face The Truth
Tuning: CGDGBE


Intro (0:00):

E|-------------------------1------------3------3------3--------|
B|----------1---3------1h3-----1h3--3------3------3------3-----|
G|-3--2---3-2---3--3-----------------------------------------0-|
D|----3---------------------------------------------0----------|
G|------0-----0------0-------0--------0------0-------------0---|
C|-------------------------------------------------------------|


E|----------------------------------------------------------|
B|----------1---3------1------------------------------------|
G|-3--2---3--------3-----3-2---0------0------0------0-------|
D|----3---------------------------0------0------0------0----|
G|------0-----0------0-------0------0------0------0------0--|
C|----------------------------------------------------------|


E|-------------------------1---1h3------3------3------3--------|
B|----------1---3------1h3----------3------3------3------3-----|
G|-3--2---3-2------3-----------------------------------------0-|
D|----3--------------------------------------------------------|
G|------0-----0------0-------0--------0------0------0------0---|
C|-------------------------------------------------------------|


E|----------------------------------------------------------------|
B|----------1---1h3------1----------------------------------------|
G|-3--2---3----------3-----3-2---0--------------------------------|
D|----3-----------------------------0---3--2--0-------------------|
G|------0-----0--------0-------0------0------------3--2--0--------|
C|----------------------------------------------------------------|



Verse (0:36):

E|-----------------------------------------------------------------|
B|--------------------------------------------1--------1--1h3------|
G|------------------3-------------------------0-----3--------------|
D|-------2--3--2--------0--2----3---3--3--3---2----------------0---|
G|---------------------------------------------------------------0-|
C|----4------------------------------------------------------------|
   It came from the top of the deck           warm  and direct


E|-----1----------------1---------------------------------------------|
B|-1-------3--------1-------3--------1--------------------------------|
G|-2-------3---3----2-------3---3----2---3---0------0-0-----0-0---0---|
D|--------------------------------------------------------------------|
G|---------------0----------------0---------------0-------0---------0-|
C|--------------------------------------------------------------------|
   No more shoes    no more news     no more blues


E|---------------------------------------------------------------|
B|------------------------------------------1--------1--1h3------|
G|-------3----------------------------------0-----3----------0---|
D|-0h2h3----2-----0--2----3-------3---3------------------------0-|
G|------------------------------0-------0------------------------|
C|---------------------------------------------------------------|
    Iranian gown  on your frame             born  to the game


E|-----1----------------1---------------------------|
B|-1-------3--------1-------3--------1--------------|
G|-2-------3---3----2-------3---3----2---3---0------|
D|--------------------------------------------------|
G|---------------0----------------0-----------------|
C|--------------------------------------------------|
   No more shoes    no more news     no more blues   


E|----------------------------------------------------------|
B|----------------------------------------------------------|
G|----------------------------------------------------------|
D|--3---2---0----------------0-0---0--0--0--0---------------|
G|----------------3--2--0-----------------------------------|
C|----------------------------------------------------------|
   Take my time   hurry ???                 and getcha back



Interlude (1:14):

E|----------------------------------------------|
B|----------------------------------------------|
G|-5--3-----------5--3------------------------3-|
D|-------5--------------5p3-5---5--5--5--5--5---|
G|------------0-----------------0--0--0--0------|
C|----------------------------------------------|


E|-------------------------------------------------------------------|
B|-------------------------------------------------------------------|
G|-5b6r5--3---5b6r5--3---5b6r5--3-5b6r5-3----------------------------|
D|----------5----------5-------------------5p3-5------5--5--5--5--5--|
G|------------------------------------------------0------------------|
C|-------------------------------------------------------------------|


>> After this part repeat the Intro, with variations (1:30)



Interlude (2:06):

E|---------------------------------------------------------------------------|
B|---------------------------------------------------------------------------|
G|-9-7-----------9p7-9p7-9-10------------------9p7-9p7-9-10------------------|
D|-----8----8-----------------7----7--7---------------------6----6--6--------|
G|----------0----------------------0--0--0-0-0-------------------0--0--0-0-0-|
C|---------------------------------------------------------------------------|


E|------------------------------------------------------|
B|------------------------------------------------------|
G|-9p7-9p7-9-10-----------------------------------------|
D|--------------5------5-3-0-5--3-0-5p0-3p0-5p0-3p0-5p0-|
G|-----------------0-0----------------------------------|
C|------------------------------------------------------|


E|----------------------------------------------------------------------------------|
B|----------------------------------------------------------------------------------|
G|-9-7------------------9p7-9p7-9-10------------------9p7-9p7-9-10------------------|
D|-----8----8--8---------------------7----7--7---------------------6----6--6--------|
G|----------0--0--0-0-0-------------------0--0--0-0-0-------------------0--0--0-0-0-|
C|----------------------------------------------------------------------------------|


E|------------------------------------------|
B|------------------------------------------|
G|-9p7-9p7-9-10-----------------------------|
D|--------------5------5-3-0-5--3-0-5--3-0--|
G|-----------------0-0----------------------|
C|------------------------------------------|


>> (2:38):

   Gtr 1:                       *[With Fill 1 x2]   Fill 1 (Gtr 2):
E|-3--1-----------------------|------------------|--------------------------------|
B|------3----2--3-2--3p2------|-2--3-2--3p2------|--------------------------------|
G|----------(3)----------3-0--|-3-----------3-0--|--------------------------------|
D|----------------------------|------------------|--------------------------------|
G|----------------------------|------------------|--6--6-6-6-6-6-6-0--0-0-0-0-0-0-|
C|----------------------------|------------------|--------------------------------|
         [Play 4 times]          [Play 4 times]


>> (3:02):

E|---------------------------------|
B|-3-3-3-3-3-3-3-3-3-3-3-3-3-3-3-3-| <-- Gtr 1
G|-3-3-3-3-3-3-3-3-3-3-3-3-3-3-3-3-| <-- Gtr 1
D|---------------------------------|
G|-6-6-6-6-6-6-6-6-6-6-6-6-6-6-6-6-| <-- Gtr 2
C|---------------------------------|
  [Play twice]


>> (3:10):

E|----------------------------------------------------------------------------------|
B|-------/14\-----/17\----/15\---/12\-----/14/15\----/13\----/17\-----/15\--/12\----|
G|----------------------------------------------------------------------------------|
D|-0--------------------------------------------------------------------------------|
G|-0--------------------------------------------------------------------------------|
C|----------------------------------------------------------------------------------|
         (with delay)


>> (3:26):

E|---------------------------------------------------|
B|------12---------------------12--------------------|
G|------------12----12---------------12----12----12--|
D|-12------15----14----15-12------15----14----15-----|
G|-12------------------------------------------------|
C|---------------------------------------------------|


E|---------------------------------------------------|
B|---------------------------------------------------|
G|---12----12----12------------12----15p12----12-----|
D|------15----14----15-12---15----12-------15----12--|
G|---------------------------------------------------|
C|---------------------------------------------------|


E|------------------------------------------------|
B|---12-------------------------------------------|
G|---------12----12---------12----12----12----12--|
D|------15----14----15-12------15----14----15-----|
G|------------------------------------------------|
C|------------------------------------------------|


E|-----------------------------------------------|
B|---12------------------------------------------|
G|---------12----12------------12----15p12----12-|
D|------15----14----15-12---15----12-------15----|
G|-----------------------------------------------|
C|-----------------------------------------------|



Guitar Solos (3:40):

>> Ad-lib



Interlude (4:24):

E|-------------------------------------------------------------------------------|
B|-------------------------------------------------------------------------------|
G|-12-10-9h10p9\7-9-10-9-7---5-7/9-7-5-3-5-5b7-5-3h5p3\2-3-5-3-2---0---0-2p0---0-|
D|-------------------------------------------------------------------3-------3---|
G|-------------------------------------------------------------------------------|
C|-------------------------------------------------------------------------------|
   [Play twice]

E|---------------------------------------------------------------------------|
B|---------------------------------------------------------------------------|
G|-/12--10-9h10p9\7-9-10-9-/14--12-10h12p10\9-10-12-10-/15--14-12-/17--15-14-|
D|---------------------------------------------------------------------------|
G|---------------------------------------------------------------------------|
C|---------------------------------------------------------------------------|


E|--------------------------------------------17--------18--17----|
B|-----------------------18--17----/20--18-17-----20-18--------20-|
G|-/19--17-15-/21--19-17--------19--------------------------------|
D|----------------------------------------------------------------|
G|----------------------------------------------------------------|
C|----------------------------------------------------------------|


>> Multiple guitars playing slightly different parts arranged for one guitar:
E|-----------------------------------------------------------|
B|-17--17--------17----17b19--17-15-17-15\12-11-12-----------|
G|--------17-19-----16---------------------------------------|
D|-----------------------------------------------------------|
G|-----------------------------------------------------------|
C|-----------------------------------------------------------|


E|----------------------------------|
B|--------------0-------------------|
G|---0----------0--------0----------|
D|---0----------0--------0----------|
G|---0----------0--------x----------|
C|-----------------------5b7--------|



Bridge (5:08):

   [Play 4 times]
E|--------------------------------------------|
B|--------------------------------------------|
G|--------------------------------------------|
D|--------------------------------------------|
G|-------------------------------------3---0--|
C|-5---7--5-----7---------4b5r4--0-2p0--------|
   All my stray thoughts, they are unarranged
   All my stray thoughts, they are impure chk chk
   All my stray thoughts, they are unarranged
   All my stray thoughts, they are impure



>> (5:23):

   Gtr 1:
E|-------------------------------------------------------------------|
B|--------------------------------------------------------3--3-------|
G|--------------------------------------------x--x--3-----3--3-------|
D|--------------------------------------------x--x--3----------------|
G|-0-----------------------------------------------------------------|
C|-------------------------------------------------------------------|
 | Will you give me sidearm compliment give an autopsy of the event  |
 |                                                                   |
 | Gtr 2:                                                            |
E|-------------------------------------------------------------------|
B|--12-12-12--12--12--12--12--12--12---------------------------------|
G|-------------------------------------------------------------------|
D|-------------------------------------------------------------------|
G|------------------------------------0-0-0---0---0---0---0---0---0--|
C|-------------------------------------------------------------------|

   Gtr 1:
E|-------------------------------------------------------------|
B|------------------------------3---x---x---3---x---3---3---x--|
G|-4----x---4---x---x---4---x---3---x---x---3---x---3---3---x--|
D|-5----x---5---x---x---5---x----------------------------------|
G|-------------------------------------------------------------|
C|-------------------------------------------------------------|
 | Such   uneven   principle    time and time and time again   |
 |                                                             |
 | Gtr 2:                                                      |
E|-------------------------------------------------------------|
B|-12-12-12--12--12--12--12--12--12----------------------------|
G|-------------------------------------------------------------|
D|-------------------------------------------------------------|
G|----------------------------------0-0-0--0--0--0--0--0--0----|
C|-------------------------------------------------------------|

   Gtr 1:
E|---------------------------------------------------|
B|-----x--15--x--x--15--x--15--x--x--15--x--15-17-15-|
G|-4---x--15--x--x--15--x--15--x--x--15--x--15-17-15-|
D|-5---x--15--x--x--15--x--15--x--x--15--x--15-17-15-|
G|---------------------------------------------------|
C|---------------------------------------------------|
 | ??????                I will never ??????         |
 |                                                   |
 | Gtr 2:                                            |
E|---------------------------------------------------|
B|-0-0-0--0--0--0--0--0--0---------------------------|
G|-0-0-0--0--0--0--0--0--0---------------------------|
D|---------------------------------------------------|
G|--------------------------0-0-0--0--0--0--0--0--0--|
C|---------------------------------------------------|

   Gtr 1:
E|-----------------------------------------------------------------|
B|-15----x-15--x-x--15-x-15--x-x--15-x-15-15-15--------------------|
G|-15----x-15--x-x--15-x-15--x-x--15-x-15-16-15-0------------------|
D|-15----x-15--x-x--15-x-15--x-x--15-x-15-17-15-0------------------|
G|-----------------------------------------------------------------|
C|-----------------------------------------------------------------|
 | Spare me your contrarian thaw thaw thaw thaw thaw               |
 |                                                                 |
 | Gtr 2:                                                          |
E|-----------------------------------------------------------------|
B|-----------------------------------------------------------------|
G|-2----0-----------0--0-------------------------------------------|
D|---------3--0--3-------------------------------------------------|
G|------------------------0-0-0--0--0--0--0--0--0--0---------------|
C|-----------------------------------------------------------------|


>> (5:46):

E|-------------------------------------------------------------------------|
B|-------------------------------------------------------------------------|
G|-*7--r--6-----3b---------------------------------------------------------|
D|------------------5---3-----------0---3---3h5----------5\----------------|
G|--------------------------3---5-----------------0------0-----------------|
C|-------------------------------------------------------------------------|
   *pre-bend, gradual release



Verse (6:08):

E|-------------------------------------------------------------------|
B|---------------------------------------------1--------1--1h3-------|
G|-------3--------------------------------------------3----------0---|
D|-0h2h3-----2-------0---2---3-------3---3---0------0--------------0-|
G|---------------------------------0-------0------0------------------|
C|-------------------------------------------------------------------|
   Beautiful nerves send you wild              lost   in a pile


E|-----1----------------1-------------------------------------------|
B|-1-------3--------1-------3--------1------------------------------|
G|-2-------3--------2-------3--------2---3---0-------0--0----0--0---|
D|---------------------------------------3--------------------------|
G|-------------------------------------------0----0-------0-------0-|
C|------------------------------------------------------------------|
   Of old shoes     of old news      of old blues


E|------------------------------------------------------------------|
B|---------------------------------------------1--------1--1h3------|
G|-------3-------------------------------------0------3---------0---|
D|-0h2h3-----2-------0---2---3----3--3--3-3---------0-------------0-|
G|---------0-----0--------------------------0-----------------------|
C|------------------------------------------------------------------|
   A gallery of      vivid dreams              torn   and extreme


E|-----1----------------1----------------1----------------1------------|
B|-1-------3--------1-------3--------1-------3--------1-------3--------|
G|-2-------3---3----2-------3---3----1-------3---3----1-------3---3----|
D|---------------------------------------------------------------------|
G|--------------------------------0----------------0----------------0--|
C|---------------------------------------------------------------------|
   No more shoes    no more news     no more shoes    no more blues   


E|----------------------------------------------------------------------------|
B|-1--1----1--1----1--1----1--1----1---1--1--1--1--1--1--1--0-----------------|
G|-1--1----1--1----1--1----1--1----1---1--1--1--1--1--1--1--0-----------------|
D|----------------------------------------------------------0-----------------|
G|----------------------------------------------------------0-----------------|
C|----------------------------------------------------------------------------|
   No more no more no more no more no  more more more more blues



Ending (6:53):

E|----------------------|-----------------------1--1h3------3------3------3-------|
B|---------1---3---3----|----------1---3----1h3-----------------------------------|
G|-3--2--3-2---3--------|--3--2--3-2---3------------------------------------------|
D|----------------------|-------------------------------0------0------------------|
G|----------------------|---------------------------------0------0----0-0----0-0--|
C|----------------------|---------------------------------------------------------|
      [Play twice]


   12-String guitar:
E|-------------------|----------------------------------------------|
B|---------1---3-----|--1-------------1----------------1------------|
G|-3--2--3-2---3-----|--2---3-2--0----2--3-2-0-0----0--2--3-2--0----|
D|-2--3--0-----------|------3-3--0-------3-3---0--0-------3-3--0----|
G|-----------0-------|----------------------------------------------|
C|-------------------|----------------------------------------------|
    [Play 3 times]


>> 12-string guitar ad-libs until the end