Home‎ > ‎Tabs‎ > ‎Westing by Musket and Sextant‎ > ‎

Perfect Depth

Author/Artist: Pavement
Title: Perfect Depth
Album: Westing (By Musket and Sextant)
Tuning: DADABE


(0:15):

E|-----------------------------------------------------------------|
B|-----------------------------------------------------------------|
A|-----------------------------------------------------------------|
D|-----------------------------------------------------------------|
A|-3/5-5-5-5-5-5-2-2-2-2-2-2-2-2/5-5-5-5-5-5-5-5-5-5-5-5-5-5-5-5-0-|
D|-0---0-0-0-0-0-2-2-2-2-2-2-2-2/5-5-5-5-5-5-5-5-5-5-5-5-4-4-4-4-0-|
                          [Play 3 times]


E|-----------------------------------------------------------------------------------------|
B|-----------------------------------------------------------------------------------------|
A|-----------------------------------------------------------------------------------------|
D|-----------------------------------------------------------------------------------------|
A|-3/5-5-5-5-5-5-2-2-2-2-2-2-2-2/5-5-5-5-5-5-5-5-5-5-5-5-5-5-5-5-5-5-5-5-5-5-5-5-5-5-5-5-5-|
D|-0---0-0-0-0-0-2-2-2-2-2-2-2-2/5-5-5-5-5-5-5-5-5-5-5-5-5-5-5-5-5-5-5-5-5-5-5-5-5-5-5-5-5-|


(0:54):

E|---------------------------------------------------------------|
B|---------------------------------------------------------------|
A|-7-7-7-5-5-5-5-5-5-5-5-5-5-5-5-5-4-4-4-5-5-5-5-5-5-5-----------|
D|-9-9-9-7-7-7-7-7-7-7-7-7-7-7-7-7-7-7-7-7-7-7-7-7-7-7-5-5-5-5-5-|
A|-7-7-7-5-5-5-5-5-5-5-5-5-5-5-5-5-4-4-4-0-0-0-0-0-0-0-5-5-5-5-5-|
D|-----------------------------------------------------5-5-5-5-5-|


E|-----------------------------------------------------------------------|
B|-----------------------------------------------------------------------|
A|-7-7-7-5-5-5-5-5-5-5-5-5-5-5-5-5-4-4-4-5-5-5-5-5-5-5-------------------|
D|-9-9-9-7-7-7-7-7-7-7-7-7-7-7-7-7-7-7-7-7-7-7-7-7-7-7-5-5-5-5-5-5-5-5\2-|
A|-7-7-7-5-5-5-5-5-5-5-5-5-5-5-5-5-4-4-4-0-0-0-0-0-0-0-5-5-5-5-5-5-5-5\2-|
D|-----------------------------------------------------5-5-5-5-5-5-5-5\2-|


(1:13):

   [Play 3 times]
E|-----------------------------------------------------------------|
B|-----------------------------------------------------------------|
A|-----------------------------------------------------------------|
D|-2-2-2-2-2-2-2-2-2-2-2-2-2-2-2-2-5-5-5-5-5-5-5-5-5-5-5-5-5-5-5\2-|
A|-2-2-2-2-2-2-2-2-2-2-2-2-2-2-2-2-5-5-5-5-5-5-5-5-5-5-5-5-5-5-5\2-|
D|-2-2-2-2-2-2-2-2-2-2-2-2-2-2-2-2-5-5-5-5-5-5-5-5-5-5-5-5-5-5-5\2-|
   They were wasted...


(1:40):

E|------------------------------------------------------------|
B|------------------------------------------------------------|
A|------------------------------------------------------------|
D|-2-2-2-2-2-2-2-2-2-2-2-2-2-4-----5-----------4-------2------|
A|-2-2-2-2-2-2-2-2-2-2-2-2-2-4-----5-----------4-------2------|
D|-2-2-2-2-2-2-2-2-2-2-2-2-2-4-----5-----------4-------2------|
 'Cause I wasted, I wasted, I wasted it all on you


(1:49):

E|---------------------------------------------------------------------------------|
B|---------------------------------------------------------------------------------|
A|-5-------------------7-----7-----------------------------------------------------|
D|-7-------------------------------------12----12-12----12-------12----------12----|
A|-5-5-5-5-5-5-5/7-7-7---7-7---7-7-/10------10-------10----10-10----10-10-10----10-|
D|-0-------------------------------------------------------------------------------|


E|-----------------------------------------------------------------------------------------------------------|
B|-----------------------------------------------------------------------------------------------------------|
A|-----------------------------------------------------------------------------------------------------------|
D|-7---7-----7---7-----9-----9------------12--12-12-12-12-12--12--12-12-12-12-12--12--12-12-12-12-12--12--12-|
A|-5-5---5-5---5---7-7---7-7---7-7-/10-10-10--10-10-10-10-10--10--10-10-10-10-10--10--10-10-10-10-10--10--10-|
D|-----------------------------------------------------------------------------------------------------------|


E|-------------------------------------------------------------|
B|-------------------------------------------------------------|
A|-------------------------------------------------------------|
D|-7-7-7-7-7--7--7-7-7-7--7-7--7-7-9-9-9--9--9-9-9-9--9-9--9-9-|
A|-5-5-5-5-5--5--5-5-5-0--0-5--5-5-7-7-7--7--7-7-7-0--0-7--7-7-|
D|-------------------------------------------------------------|


E|--------------------------------------------------------------------------|
B|--------------------------------------------------------------------------|
A|--------------------------------------------------------------------------|
D|-12-12-12--12--12-12-12-12-12--12-12-12-12-12--12--12-12-12-12-12--12--12-|
A|-10-10-10--10--10-10-10-10-10--10-10-10-10-10--10--10-10-10-10-10--10--10-|
D|--------------------------------------------------------------------------|


E|-----------------------------------------------------------------------|
B|-----------------------------------------------------------------------|
A|-----------------------------------------------------------------------|
D|-7-7-7-7-7--7--7-7-7-7-7--7--7-7-9-9-9--9--9-9-9-9-9--9--9-9-12--------|
A|-5-5-5-5-5--5--5-5-5-5-5--5--5-5-7-7-7--7--7-7-7-7-7--7--7-7-10--------|
D|-----------------------------------------------------------------------|


(2:23):

E|-------------------------------------------------------------------------------|
B|-------------10----10----------------------10----------------------10----------|
A|----10----------------10----10-------10-------10----10-------10-------10----10-|
D|-------12-------12-------12-------12----12-------12-------12----12-------12----|
A|-10-------10-------------------10----------------------10----------------------|
D|-------------------------------------------------------------------------------|


E|-------------------------------------------------------|
B|-------------10----------------------10----------------|
A|-------10-------10----10-------10-------10----10-------|
D|----12----12-------12-------12----12-------12----------|
A|-10----------------------10----------------------10----|
D|-------------------------------------------------------|