Home‎ > ‎Tabs‎ > ‎Brighten the Corners‎ > ‎

Fin

Author/Artist: Pavement
Title: Fin
Album: Brighten the Corners
Tuning: Standard


Verse:

E|--4------0------4-------0------2------0------4-------------0----------0----|
B|--5------0------5-------0------3------2------5------4------2----------0----|
G|--6------1------6-------1------4------2------6------4------2----------1----|
D|--6------2------6-------2------4------2------6------4------2----------2----|
A|--4------2------4-------2------2------0------4------2------0----------2----|
E|---------0--------------0---------------------------------------------0----|


E|--0------2------0------2------0--------------------------------------|
B|--2------2------0------3------2--------------------------------------|
G|--2------3------1------2------2--------------------------------------|
D|--2------4------2------0------2----------0-----0-----0-----0-2-------|
A|--0------4------2-------------0-------------2-----2-----2------------|
E|---------2------0-----------------------------------------------0----|
  "No more absolutes..."



2nd Verse:

E|-4---4---4---4-5-4---4---4---4---|-----0--2--4-----0--2--4--|
B|---5---5---5---------------------|--3-----------2-----------|
G|-------------------4---4---4---4-|--4-----------2-----------|
D|---------------------------------|--------------------------|
A|---------------------------------|--------------------------|
E|---------------------------------|--------------------------|
            [Play twice]


E|-7---7---7---7-9-7---7---7---7-9-12----12----12----12----12----12----12----12------0-|
B|-----------------------------------------------------------------------------------0-|
G|---9---9---9-------8---9---9--------14----14----14----14----13----13----13----14---1-|
D|-----------------------------------------------------------------------------------2-|
A|-----------------------------------------------------------------------------------2-|
E|-----------------------------------------------------------------------------------0-|


E|-4---4---4---4-5-4---4---4---4---4---4---4---4-5-4---4---4---4-5-|
B|-------------------------------------------0---------------------|
G|---6---6---6-------4---4---4---4---6---6-----------4---4---4-----|
D|-----------------------------------------------------------------|
A|-----------------------------------------------------------------|
E|-----------------------------------------------------------------|


E|-0---0---0---0-2-0---0---0---0---|
B|-------0---------------0---0---0-|
G|---2-------2-------2-------------|
D|---------------------------------|
A|---------------------------------|
E|---------------------------------|


E|-7-9-7-9-7---7-9-7---7---7---7-9-12----12----12----12----12----12----12----12----|
B|---------------------------------------------------------------------------------|
G|-----------9-------8---8---8--------14----14----14----14----13----13----13----14-|
D|---------------------------------------------------------------------------------|
A|---------------------------------------------------------------------------------|
E|---------------------------------------------------------------------------------|