Home‎ > ‎Tabs‎ > ‎Wowee Zowee‎ > ‎

Kennel District

Author/Artist: Pavement
Title: Kennel District
Album: Wowee Zowee
Tuning: SM: DADABE
        Spiral: DADGBE


Main Riff for entire song:
>> For the verses and intro, Spiral plays just the bottom string instead of barre chords

   Spiral:
E|---------------------------------------------|
B|---------------------------------------------|
G|---------------------------------------------|
D|--7--7--7--0----0--0--9----9--9--0----0--0---|
A|--7--7--7--0----0--0--9----9--9--0----0--0---|
D|--7--7--7--0----0--0--9----9--9--0----0--0---|



Chorus:

   SM:
E|---------------------------------------------|
B|-15----14-15------14-15------14--------------|
A|----12---------12---------12----12-----------|
D|---------------------------------------------|
A|---------------------------------------------|
D|---------------------------------------------|


   SM:
E|---------------------------------------------|
B|---------------------------------------------|
A|--5-----4--5-------4--5-------4--------------|
D|-----7----------7----------7-----7-----------|
A|---------------------------------------------|
D|---------------------------------------------|
   (Live version)