Home‎ > ‎Tabs‎ > ‎Westing by Musket and Sextant‎ > ‎

Debris Slide

Author/Artist: Pavement
Title: Debris Slide
Album: Westing
Tuning: CGDGBE

This tab is for the live version of the song


Intro (0:00):

E|--------------------------|
B|--------------------------|
G|--3--0--0--0--0--0--0--0--|
D|--0--0--0--0--0--0--0--0--|
G|--0--0--0--0--0--0--0--0--|
C|--------------------------|
        [Play 4 times]



Verse (0:08, 0:39):

E|----------------------------------------------------|
B|----------------------------------------------------|
G|--3--0--0--0--0--0--0--0---3--3--3--3--3--3--3--3---|
D|--0--0--0--0--0--0--0--0---0--0--0--0--0--0--0--0---|
G|--0--0--0--0--0--0--0--0---0--0--0--0--0--0--0--0---|
C|----------------------------------------------------|


E|----------------------------------------------------|
B|----------------------------------------------------|
G|--5--5--5--5--5--5--5--5---5--5--5--5--5--5--5--5---|
D|--3--3--3--3--3--3--3--3---2--2--2--2--2--2--2--2---|
G|--0--0--0--0--0--0--0--0---0--0--0--0--0--0--0--0---|
C|---------------------------0--0--0--0--0--0--0--0---|



Chorus (0:24, 0:55, 1:26):

E|----------------------|
B|----------------------|
G|--0----5----2----5----|
D|--0----5----2----5----|
G|--0----5----2----5----|
C|----------------------|



Interlude (1:10):

E|--------------|
B|--------------|
G|--4-----------|
D|--4-----------|
G|--4-----------|
C|--------------|