Cromatismo exercicios para mão esquerda.

Exercicios de cromatismo

 
 
 
CROMATISMOS
São basicamente exercícios que desenvolvem a digitação, coordenação e agilidade dos dedos da mão esquerda facilitando o estudo de escalas que são usadas na realização de solos.
Mas antes de iniciarmos os exercícios de cromagem vamos aprender alguns
conceitos e técnicas.

Digitação

É o posicionamento correto dos dedos da mão esquerda de forma a facilitar
a execução de movimentos de subida e descida nas cordas.

Dedos da mão esquerda

1 - Indicador
2 - Médio
3 - Anular
4 - Mínimo

A digitação será indicada na tablatura dos exercícios.

Os dedos devem formar um arco sobre as cordas para evitar encostar nas
cordas abaixo causando abafamentos e ruídos. A ponta do dedo deve ser
colocada logo atrás ou depois do traste e não sobre o traste, isto evita
abafamentos e um trastejamento que ira emitir ruídos indesejados.


A Palheta

A partir deste ponto vamos iniciar o estudo usando uma palheta, existem
varias técnicas de palhetadas.

Modo de segurar

Segure a palheta entre o polegar e o dedo indicador. A ponta da palheta
deve ficar a um ângulo de mais ou menos 90º em relação às cordas. Segura a
palheta de modo firme, mas relaxado.

Palhetadas alternadas

Uma técnica muito simples que consiste em variar o sentido das palhetadas
para cima e para baixo em uma mesma corda.

Regra

Observe a tablatura:

v ^ v ^ v ^
e:|---------------------------------------------------------- -|
B:|-----------------------------------------------------------|
G:|-----------------------------------------------------------|
D:|-----------------------------------------------------------|
A:|-----------1--2--3----------------------------------------|
E:|--1--2--3------------------------------------------------- |


Se começar com a primeira palhetada para baixo na casa 1 (corda E) a segunda palhetada que vai ser na mesma corda casa 2 deve ser obrigatoriamente para cima, a terceira palhetada na mesma corda casa 3 deve ser para baixo.

Ao mudarmos de corda podemos dar a primeira palhetada para cima ou para baixo, usualmente começamos com a palhetada para baixo, obrigatoriamente a segunda será para cima e a terceira para baixo e assim por diante.

Na tablatura as palhetadas são indicadas através dos sinais:

v - Palhetada para baixo
^ - Palhetada para cima


Exercícios de cromagem


O exercício é muito simples, deve ser feito com bastante precisão. Ele consta basicamente de  dois movimentos. O primeiro de descida descrito logo abaixo.


Observe a tablatura:

d: 1 2 3 4 1 2 3 4 1 2 3 4 1 2 3 4 1 2 3 4 1 2 3 4

p: v ^ v ^ v ^ v ^ v ^ v ^ v ^ v ^ v ^ v ^ v ^ v ^
e:|------------------------------------------1-2-3-4-----|
B:|----------------------------------1-2-3-4-------------|
G:|--------------------------1-2-3-4---------------------|
D:|------------------1-2-3-4-----------------------------|
A:|----------1-2-3-4-------------------------------------|
E:|--1-2-3-4---------------------------------------------|

|----> Sentido descendente


d: Indicam os dedos da mão esquerda

p: Uso das palhetadas alternadas


Inicie pressionando a 1º casa corda 6, com o dedo indicador, ataca-se com
a primeira palhetada depois e a vez de pressionar a 2º casa corda 6 com o dedo médio, continuando o dedo anular pressiona a 3º casa corda 6 e a 4º casa 6 corda e pressionada com o dedo mínimo. Parece simples, porem o dedo indicador, médio e anular devem ser mantidos na sua posição inicial ou seja depois de  pressionar as casas e de dar a palhetada os dedos permanecem no mesmo lugar.
Os dedos só vão desarmar ao passar para segunda corda e assim por diante.


O segundo movimento de subida acompanhe a tablatura:


d: 4 3 2 1 4 3 2 1 4 3 2 1 4 3 2 1 4 3 2 1 4 3 2 1

p: v ^ v ^ v ^ v ^ v ^ v ^ v ^ v ^ v ^ v ^ v ^ v ^
e|--4-3-2-1--------------------------------------------- -|
B|----------4-3-2-1--------------------------------------|
G|------------------4-3-2-1------------------------------|
D|--------------------------4-3-2-1----------------------|
A|----------------------------------4-3-2-1--------------|
E|------------------------------------------4-3-2-1------ |

<----| Sentido ascendente


d: Indicam os dedos da mão esquerda

p: Uso das palhetadas alternadas


Note que o segundo movimento e o contrário do primeiro. A regras são as
mesmas mas por estarmos executando um movimento ascendente os dedos não permanecem nas suas devidas casas. Portanto devemos permanecer com o dedo  indicador pressionado a uma corda abaixo.

Existem inúmeras variações de exercícios de cromagem onde sua maior
função é de alguma forma desenvolver sua agilidade na digitação.

Os exercícios de cromagem são bastantes exaustivos devem ser realizados
com cuidado e muita repetição. Mas tome cuidado sempre faça pausas ao
sentir que o esforço foi exagerado, a repetição de movimentos pode levar
ao desenvolvimento de doenças como inflamação nos tendões, LER, etc...


Execução dos exercícios

Os exercícios são executados com palhetadas alternadas.

No movimento de descida o dedo indicador, médio e anular devem ser mantidos na sua posição inicial eles só vão desarmar ao passar para segunda corda e  assim por diante.

No movimento de subida o dedo indicador deve permanecer na corda anterior.


1º exercício

v ^ v ^...
e|-------------------------1-3---4-2----------------------
B|---------------------1-3-----------4-2------------------
D|-----------------1-3-------------------4-2--------------
G|-------------1-3---------------------------4-2----------
A|---------1-3-----------------------------------4-2------
E|-----1-3-------------------------------------------4-2--

Dedos 1 3 4 2


e|-------------------------2-4---5-3----------------------
B|---------------------2-4-----------5-3------------------
D|-----------------2-4-------------------5-3--------------
G|-------------2-4---------------------------5-3----------
A|---------2-4-----------------------------------5-3------
E|-----2-4-------------------------------------------5-3--

Dedos 1 3 4 2

2º exercício

Semelhante ao primeiro mais usando três dedos.

v ^ v ^...
e|-------------------------------1-2-3---4-3-2--------------------------
B|-------------------------1-2-3---------------4-3-2--------------------
G|-------------------1-2-3---------------------------4-3-2--------------
D|-------------1-2-3---------------------------------------4-3-2--------
A|-------1-2-3---------------------------------------------------4-3-2--
E|-1-2-3----------------------------------------------------------------

1 2 3 4 3 2


e|-------------------------------2-3-4---5-4-3--------------------------
B|-------------------------2-3-4---------------5-4-3--------------------
G|-------------------2-3-4---------------------------5-4-3--------------
D|-------------2-3-4---------------------------------------5-4-3--------
A|-------2-3-4---------------------------------------------------5-4-3--
E|-2-3-4----------------------------------------------------------------

1 2 3 4 3 2


3º exercício

Usando os quatro dedos fazendo movimentos de quatro em quatro casas da 6ª corda para 1ª, execute também o movimento de subida voltando da 1º para  a 6ª corda.

v ^ v ^...
e|--------------------------------------------------------------------------
B|--------------------------------------------------------------------------
G|--------------------------------------------------------------------------
D|-------------------------------------------------------------1-2-3-4--etc-
A|-------------------------------1-2-3-4--5-6-7-8--9-10-11-12---------------
E|-1-2-3-4--5-6-7-8--9-10-11-12---------------------------------------------

1 2 3 4 1 3 3 4 1 2 3 4 1 etc...

4º exercício


Ajuda a desenvolver saltos de uma corda para outra usando os dedos 1, 2, 3 e 4, a progressão começa na primeira casa e se prolonga as demais.


v ^ v ^...
e|-------------------------------------------------------------------------
B|-------------------------------------------------------------------------
G|-----------------------------------------1-2-3-4---------1-2-3-4---------
D|-------------------------1-2-3-4-----------------------------------------
A|---------1-2-3-4---------------------------------------------------------
E|-1-2-3-4---------1-2-3-4---------1-2-3-4---------1-2-3-4---------1-2-3-4-



e|-----------------1-2-3-4---------------------
B|-1-2-3-4-------------------------------------
G|---------------------------------------------
D|---------------------------------------------
A|---------------------------------2-3-4-5-----
E|---------1-2-3-4---------2-3-4-5-------------Etc...


5º exercício

Exercício conhecido com digitação em formato "X" onde desenvolve sua
precisão e facilidade em trocar de cordas. Observe o sentido das
palhetadas que deve ser escorregada acima ou a baixo quando ocorrer
a mudança de corda.


v ^ v ^ ^ ^ ^ v ^ v v v v ^ v ^ ^ ^ ^ v ^ v v v v ^ v ^ ^ ^ ^ v ^ v ^ ^
e|-------------------------------------------------------------------------
B|-------------------------------------------------------------------------
G|-------------3-4-5-6-----------------4-5-6-7-----------------5-6-7-8-----
D|-----------4---------5-------------5---------6-------------6---------7---
A|---------5-------------4---------6-------------5---------7-------------6-
E|-3-4-5-6-----------------4-5-6-7-----------------5-6-7-8-----------------

1 2 3 4 3 2 1 2 3 4 3 2 1 2 3 ...

Os movimentos devem ser praticados até você conseguir adquirir uma boa
agilidade com a digitação.
Quando começar a praticar estes exercícios você vai sentir uma grande
dificuldade de posicionar os dedos, mas com a pratica e o tempo se torna
mais fácil. Procure também apertar bem as cordas para que o som das notas saia bem nítido.
Os exercícios de cromagem são muito importantes principalmente para aqueles
que querem estudar "Guitarra Solo

 
*Dica
 
COMO TROCAR DE ACORDES
Um problema que 100% dos iniciantes enfrentam é que, para tocar o acompanhamento de uma música, no caso do violão, a mão esquerda fica parada em uma posição ( também chamada de acorde ) , e a mão direita fica "batucando " o ritmo , até trocar a posição da mão esquerda e assim por diante. Acontece que a mão esquerda demora demais até ficar ágil e habilidosa o suficiente para trocar na hora certa sem "atrasar " o ritmo . Ou seja: enquanto estamos no mesmo acorde, tudo bem, só a mão direita trabalha. Na hora de mudar de posição, que sufoco ! se descuidar , acaba "atrasando " ou "cruzando " o ritmo. Há uma solução que encontrei em vários livros sobre violão que colocarei aqui:

Escolha três acordes bem diferentes entre si.

Numere cada um ( 1, 2, e 3 )

Monte o acorde 1 e toque uma vez só.

Monte o acorde 2 e toque uma vez só

Monte o acorde 3 e toque uma vez só

Vá repetindo ( 1, 2, 3... ) em seqüência cada vez mais depressa, mais depressa, até não precisar mais pensar antes de tocar qualquer um dos três, isto é : a mão vai "sozinha".

Experimente com quatro acordes, depois com cinco, etc...

Experimente também, passar a seqüência dos acordes de uma música, (uma nova canção, ou uma que é difícil de tocar).

Muitos violonistas e guitarristas precisam saber que os melhores e mais rápidos instrumentistas do mundo  praticam seus exercícios de velocidade, em um violão comum, acústico, sem amplificadores. Isso porque o "peso " das cordas do violão é perfeito para um rápido desenvolvimento muscular dos dedos. Em uma guitarra elétrica, por causa das cordas macias e da amplificação, leva-se mais tempo, e dá muito mais trabalho até se atingir o mesmo progresso. Porque os músculos não são forçados,não se exercitam e não se desenvolvem tão bem. Por tanto preste sempre atenção para esse detalhe!!!

 
 
Comments