Home‎ > ‎Tabs‎ > ‎Wowee Zowee‎ > ‎

Best Friend's Arm

Author/Artist: Pavement
Title: Best Friend's Arm
Album: Wowee Zowee
Tuning: Standard tuning


Verse:

   SM:
E|------------------------------------------------------------------------|
B|------9----9------------5----5-------9-----9----------5--------5--------|
G|------9----9------------6----6-------9-----9----------6--------6--------|
D|------9----9------------7----7-------9-----9----------7--------7--------|
A|------------------------------------------------------------------------|
E|------------------------------------------------------------------------|
 |                                                                        |
 | Spiral:                                                                |
E|------------------------------------------------------------------------|
B|-----------------------12-------------------------10-10-10-10-10-10-----|
G|-9-9-11-9--9-11-13--13-----13--11--13--11-9--6-8---8--8--8--8--8--8--8--|
D|------------------------------------------------------------------------|
A|------------------------------------------------------------------------|
E|------------------------------------------------------------------------|



Pre-Chorus:

   SM:
E|--------------------------------------------------------------------------|
B|--------------------------------------------------------------------------|
G|--------------------------------------------------4-b-6-------------------|
D|--------------------------------------------------------------------------|
A|--------------------------------------------------------------------------|
E|--------------------------------------------------------------------------|
 |                                                                          |
 | Spiral:                                                                  |
E|--------------------------------------------------------------------------|
B|-10-10-10-10-12-12-12-12-14-14-14-14-17-17-17-17-16-16-16-16-16-16-16-----|
G|----------------------------------------------------------------------16b-|
D|--------------------------------------------------------------------------|
A|--------------------------------------------------------------------------|
E|--------------------------------------------------------------------------|



Chorus:

   SM:
E|--------------------12-12---15b17--15b17--12---------|
B|-----------12-15b17----------------------------------|
G|--14b16----------------------------------------------|
D|-----------------------------------------------------|
A|-----------------------------------------------------|
E|-----------------------------------------------------|
 |                                                     |
 | Spiral:                                             |
E|-----------------------------------------------------|
B|--2--------------------------------------------------|
G|--2--------------------------------------------------|
D|--2----------------------------------------2---------|
A|--0----------------------------------------2---------|
E|-------------------------------------------0---------|



>> SM plays this during the second chorus:

   SM:
E|-----15-------12-------12-------12-------12----------|
B|--------12-15----15b17----15b17----15b17----15b17----|
G|-----------------------------------------------------|
D|-----------------------------------------------------|
A|-----------------------------------------------------|
E|-----------------------------------------------------|


E|-------17--15-----15-|-17-15----15-|-/19--19--17-15-17-15-12-15-12-15-17-|
B|---------------17----|-------17----|-------------------------------------|
G|---------------------|-------------|-------------------------------------|
D|---------------------|-------------|-------------------------------------|
A|---------------------|-------------|-------------------------------------|
E|---------------------|-------------|-------------------------------------|
                        [Play 5 times]



Outro:

>> Bass alternates A - E for rest of song; guitars ad-lib