Home‎ > ‎Tabs‎ > ‎Non-Album Tracks/Other‎ > ‎

The List Of Dorms

Author/Artist: Pavement
Title: The List Of Dorms
Album: Slanted & Enchanted: Luxe & Reduxe
Tuning: CGDGBE


Chorus (0:00, 1:10):

E|-----------------------------------------|
B|-----------------------------------------|
G|--7-9-------10-12---10-12---10-12---10---|
D|--------9---------9-------9-------9----9-|
G|-----------------------------------------|
C|-----------------------------------------|
    Going home


E|-------------------------------------------------|
B|-------------------------------------------------|
G|-----------7-----7b8r7-4---4-4-4-4b5r4--2--0-0-0-|
D|-7-7---5-----5-5---------------------------------|
G|-------------------------------------------------|
C|-------------------------------------------------|
   Going home                      going home


E|----------------------------------------------------------|
B|-12-------12-------0--------------------------------------|
G|----12-12----12-12---0-10b12r10-9---7-7-7-7-7-0-----------|
D|------------------------------------------------9---9-9-0-|
G|----------------------------------------------------------|
C|----------------------------------------------------------|
   Home     home          going home


    *[Substitute Fill 1 starting from here during the 2nd Chorus]
E|-----------------------------------------|
B|-----------------------------------------|
G|--7-9-------10-12---10-12---10-12---10---|
D|------0-9---------9-------9-------9----9-|
G|-----------------------------------------|
C|-----------------------------------------|
    Going home         going   home 


E|-------------------------------------------------|
B|-------------------------------------------------|
G|-----------7-7-7-7b8r7-4---4-4-4-4b5r4--2--0-0-0-|
D|-7-7---5-----------------------------------------|
G|-------------------------------------------------|
C|-------------------------------------------------|
   Going home


E|-----------------------------------------------------|
B|-12-------12-----------------------------------------|
G|----12-12------12-0-0-10b12r10-9---7-7-7-7-7-7-------|
D|-----------------------------------------------9\----|
G|-----------------------------------------------------|
C|-----------------------------------------------------|
   Going home



>> Fill 1 (1:28):

  E|-------------------------------------------------------------------------------|
  B|-------------10--/12--12/13--13/15--15-/17b18--18-18r17--15--15-15-15-13-15-15-|
  G|-12-12---9---------------------------------------------------------------------|
  D|-------------------------------------------------------------------------------|
  G|-------------------------------------------------------------------------------|
  C|-------------------------------------------------------------------------------|


  E|-------------------------------------------|
  B|-13--12--12--------15----------------------|
  G|------------14b16------16r15-15r14-12------|
  D|-------------------------------------------|
  G|-------------------------------------------|
  C|-------------------------------------------|



Interlude (0:42, 1:49):

E|-------------------------------------------------|
B|-------------------------------------------------|
G|-------------------------------------------------|
D|---------2-2-3-3-2-2-----5-5-3-3-2-2-3-3-2-2-----|
G|-2-2-5-5-------------5-5---------------------5-5-|
C|-------------------------------------------------|
   [Play twice]


E|-------------------------------------------------|
B|-------------------------------------------------|
G|-------------------------------------------------|
D|-9-9-7-7-5-5-7-7-5-5-3-3-5-5-3-3-2-2-3-3-2-2-7-7-|
G|-------------------------------------------------|
C|-------------------------------------------------|


E|-------------------------------------------------|
B|-------------------------------------------------|
G|-------------------------------------------------|
D|-9-9-7-7-5-5-7-7-5-5-3-3-5-5-3-3-2-2-3-3---------|
G|-------------------------------------------------|
C|-------------------------------------------------|
   (First time only)


>> During the second interlude, play the following 
   instead of the last line above (2:07):

E|------------------------------------------------------|
B|------------------------------------------------------|
G|--------------------------------------------10b11-----|
D|-9-9-7-7-5-5-7-7-5-5-3-3-5-5-3-3-2-2-3-3-7------------|
G|------------------------------------------------------|
C|------------------------------------------------------|