Home‎ > ‎Tabs‎ > ‎Non-Album Tracks/Other‎ > ‎

Tartar Martyr

Author/Artist: Pavement
Title: Tartyr Martyr
Album: Crooked Rain, Crooked Rain: LA's Desert Origins
Tuning: Standard


Verse:

E|-------------------------------------------------------|
B|-------------------------------------------------------|
G|-------------------------------------------------------|
D|--------3--2----------3--2----------3--2----------5----|
A|----5-------------5-------------5-------------5--------|
E|--3-----------0-3-----------0-3-----------0-3----------|



Chorus:

E|------------------|
B|------------------|
G|------------------|
D|---5----7---------|
A|---3----5----5----|
E|-------------3----|