Home‎ > ‎Tabs‎ > ‎Non-Album Tracks/Other‎ > ‎

Nothing Ever Happens

Author/Artist: Pavement
Title: Nothing Ever Happens
Album: Slanted & Enchanted: Luxe & Reduxe
Tuning: Standard Tuning


Intro (0:00):

>> Play 4 times:

   Spiral:
E|-------------------------------------------|
B|-------9--9------9--9------5--5------7--7--|
G|-------9--9------9--9------6--6------8--8--|
D|-------9--9------9--9------5--5------7--7--|
A|-------7--7------7--7------7--7------9--9--|
E|---------------------------5--5------7--7--|
 |                                           |
 | SM:                                       |
E|-------------------------------------------|
B|-------------------------------------------|
G|-----------0-----0-------------------------|
D|-------0h2----2-----2-------------------0*-|
A|-----------------------0------1--2---------|
E|-0-----------------------------------------|
                                         *omit this note 
                                          on the last repeat


Chorus (0:18, 0:54, 1:30):

>> Play 4 times:

   Spiral:
E|-------------------------------------------|
B|-------9--9------9--9------5--5------7--7--|
G|-------9--9------9--9------6--6------8--8--|
D|-------9--9------9--9------5--5------7--7--|
A|-------7--7------7--7------7--7------9--9--|
E|---------------------------5--5------7--7--|
 | Nothing   ever    happens                 |
 | Nothing   ever    happens     here        |
 | Nothing   ever    happens           today |
 |       Today     today     today           |
 |                                           |
 | SM:                                       |
E|-------------------------------------------|
B|-------------------------------------------|
G|-------------------------------------------|
D|-------------------------------------------|
A|----------------------2--0----1--2---------|
E|-0-----------0--3--4-------------------(4)-|



Verse (0:36, 1:12):

>> Play 4 times:

   Spiral:
E|-------------------------------------------|
B|-------9--9------9--9------5--5------7--7--|
G|-------9--9------9--9------6--6------8--8--|
D|-------9--9------9--9------5--5------7--7--|
A|-------7--7------7--7------7--7------9--9--|
E|---------------------------5--5------7--7--|
 |                                           |
 | SM:                                       |
E|-------------------------------------------|
B|-------------------------------------------|
G|-------7---------7---------5---------------|
D|-------------------------------------7-----|
A|-------------------------------------------|
E|-------------------------------------------|



Outro (1:48):

>> Play 4 times:

   Spiral:
E|-------------------------------------------|
B|-------9--9------9--9------5--5------7--7--|
G|-------9--9------9--9------6--6------8--8--|
D|-------9--9------9--9------5--5------7--7--|
A|-------7--7------7--7------7--7------9--9--|
E|---------------------------5--5------7--7--|
 |                                           |
 | SM:                                       |
E|-------------------------------------------|
B|-------------------------------------------|
G|-----------0-----0-------------------------|
D|-------0h2----2-----2-------------------0--|
A|-----------------------0------1--2---------|
E|-0-----------------------------------------|


>> (2:06):

>> Repeat four times and fade out...

   Spiral:
E|-------------------------------------------|
B|-------9--9------9--9------5--5------7--7--|
G|-------9--9------9--9------6--6------8--8--|
D|-------9--9------9--9------5--5------7--7--|
A|-------7--7------7--7------7--7------9--9--|
E|---------------------------5--5------7--7--|
 | Nothing ever happens  (nothing ever will) |
 |                                           |
 | SM:                                       |
E|-------------------------------------------|
B|-------------------------------------------|
G|-------------------------------------------|
D|-------------------------------------------|
A|------------4--5----6--7---7--8--9---------|
E|-0----------2--3----4--5---5--6--7---------|



Song Structure:

Intro
Chorus
Verse
Chorus
Verse
Chorus
Outro