Home‎ > ‎Tabs‎ > ‎Non-Album Tracks/Other‎ > ‎

Gangsters & Pranksters

Author/Artist: Pavement
Title: Gangsters & Pranksters
Album: Pacific Trim
Tuning: D#A#DFA#D


Intro / Verse Interlude:

>> Play twice during the intro

D |------------------------------------|
A#|------------------------------------|
F |----9-10-0-7--5-0----9-10-0-7--5-0--|
D |---------0-5--5-0---------0-5--5-0--|
A#|--0--------5-------0--------5-------|
D#|------------------------------------|



Verse:

D |--------------------------------------------------|
A#|--------------------------------------------------|
F |--------------------------------------------------|
D |--3--3--3--3--5--5--5--5--3--3--3--3--5--5--5--5--|
A#|--0--0--0--0--5--5--5--5--0--0--0--0--5--5--5--5--|
D#|--------------0--0--0--0--------------0--0--0--0--|



Bridge:

D |-----------------------------------------|
A#|-----------------------------------------|
F |-2-3-4-5-6-7-8-9-10-11-12-13-14-15-16-17-|
D |-----------------------------------------|
A#|-----------------------------------------|
D#|-----------------------------------------|