Home‎ > ‎Tabs‎ > ‎Non-Album Tracks/Other‎ > ‎

Beautiful As A Butterfly

Author/Artist: Pavement
Title: Beautiful As A Butterfly
Album: Brighten the Corners: Nicene Creedence Edition
Tuning: D#A#DFA#D



Riff #1 (0:00, 1:32, 3:22) [Play twice]:


    Gtr 1:
D |------------------------------------------------|
A#|------------------------------------------------|
F |------------------------------------------------|
D |--7---8---5-----7---8---------------------------|
A#|--5---5---5-7---7---7---7-6-5-4-2-0--0--0-0--0--|
D#|------------7-----------7-6-5-4-2-0--0--0-0--0--|
  |                                                |
  | Gtr 2:                                         |
D |------------------------------------------------|
A#|------------------------------------------------|
F |----------------4---5---------------------------|
D |--7---8---5-----3---3---------------------------|
A#|--5---5---5-7---2---2---------------------------|
D#|------------7---2---2---7-6-5-4-2-0--0--0-0--0--|
                                                  

    Both guitars:
D |-----------------------------------------------------------------------|
A#|-----------------------------------------------------------------------|
F |-8--8-8-8-8-8-8-8-8-8-8-8-8-8-8-8-8-6-9--9--9-9--9--9--9-9--9-9-9-9--9-|
D |-7--7-7-7-7-7-7-7-7-7-7-7-7-7-7-7-7-5-8--8--8-8--8--8--8-8--8-8-8-8--8-|
A#|-6--6-6-6-6-6-6-6-6-6-6-6-6-6-6-6-6-4-7--7--7-7--7--7--7-7--7-7-7-7--7-|
D#|-6--6-6-6-6-6-6-6-6-6-6-6-6-6-6-6-6-4-7--7--7-7--7--7--7-7--7-7-7-7--7-|



Riff #2 (0:30 & 2:03):

    Gtr 1:
D |--------------------------------------|
A#|---6-5-3-4----------------------------|
F |-5-5-5-3-3----------------------------|
D |-5-5-5-3-3-----7--6-7-6-5--5--5-5--5--|
A#|---------------7----7-6-5--5--5-5--5--|
D#|------------------------0--0--0-0--0--|
  |                                      |
  | Gtr 2:                               |
D |--------------------------------------|
A#|--------------------------------------|
F |--------------------------------------|
D |-5-5-----3-3---7--7-----5-5-----------|
A#|-----5-5-----0------7-7-----5-5-------|
D#|--------------------------------0-0-0-|


    Both guitars:
D |-----------------------------------------------------------------------|
A#|-----------------------------------------------------------------------|
F |-8--8-8-8-8-8-8-8-8-8-8-8-8-8-8-8-8-6-9--9--9-9--9--9--9-9--9-9-9-9--9-|
D |-7--7-7-7-7-7-7-7-7-7-7-7-7-7-7-7-7-5-8--8--8-8--8--8--8-8--8-8-8-8--8-|
A#|-6--6-6-6-6-6-6-6-6-6-6-6-6-6-6-6-6-4-7--7--7-7--7--7--7-7--7-7-7-7--7-|
D#|-6--6-6-6-6-6-6-6-6-6-6-6-6-6-6-6-6-4-7--7--7-7--7--7--7-7--7-7-7-7--7-|



    Gtr 1:
D |--------------------------------------|
A#|---6-5-3-4----------------------------|
F |-5-5-5-3-3----------------------------|
D |-5-5-5-3-3-----7--6-7-6-5--5--5-5--5--|
A#|---------------7----7-6-5--5--5-5--5--|
D#|------------------------0--0--0-0--0--|
  |                                      |
  | Gtr 2:                               |
D |--------------------------------------|
A#|--------------------------------------|
F |--------------------------------------|
D |-5-5-----3-3---7--7-----5-5-----------|
A#|-----5-5-----0------7-7-----5-5-------|
D#|--------------------------------0-0-0-|


    Gtr 1 & Gtr 2:
D |--------------------------------------------------------------------|
A#|--------------------------------------------------------------------|
F |-8--8-8-8-8-8-8-8-8-8-8-8-8-8-8-8-8-6-9--9--9-9--9--9--9-9--9--9--9-|
D |-7--7-7-7-7-7-7-7-7-7-7-7-7-7-7-7-7-5-8--8--8-8--8--8--8-8--8--8--8-|
A#|-6--6-6-6-6-6-6-6-6-6-6-6-6-6-6-6-6-4-7--7--7-7--7--7--7-7--7--7--7-|
D#|-6--6-6-6-6-6-6-6-6-6-6-6-6-6-6-6-6-4-7--7--7-7--7--7--7-7--7--7--7-|
  |                                                                    |
  | Gtr 3:                                                             |
D |--------------------------------------------------------------------|
A#|------------------------------------------------------------------5-|
F |------------------------------------------------------------5-7-8---|
D |--------------------------------------------------------------------|
A#|--------------------------------------------------------------------|
D#|--------------------------------------------------------------------|



Riff #3 (0:59 & 2:32):

    Gtr 1 & Gtr 2:
D |--------------------------------------------------------------|
A#|--------------------------------------------------------------|
F |-5----------------------------2-------------9-----------------|
D |-4----------------------------1-------------8-----------------|
A#|-3----------------------------0-------------7-----------------|
D#|-3----------------------------0-------------7-----------------|
  |                                                              |
  | Gtr 3:                                                       |
D |--------------------------------------------------------------|
A#|-----7---7-7---7------------5-----7-----8---7-----7---------5-|
F |-5--------------------5-7-8---5-------0---------0---0-5-7-8---|
D |--------------------------------------------------------------|
A#|--------------------------------------------------------------|
D#|--------------------------------------------------------------|


    Gtr 1 & Gtr 2:
D |--------------------------------------------------------------|
A#|--------------------------------------------------------------|
F |-5----------------------------2-------------9-----------------|
D |-4----------------------------1-------------8-----------------|
A#|-3----------------------------0-------------7-----------------|
D#|-3----------------------------0-------------7-----------------|
  |                                                              |
  | Gtr 3:                                                       |
D |--------------------------------------------------------------|
A#|-----7-----7---7-----7---------5-----7-----8-8-7--7-7-7-7-7-7-|
F |-5-------0---------0---0-5-7-8---5-----0-0--------------------|
D |--------------------------------------------------------------|
A#|--------------------------------------------------------------|
D#|--------------------------------------------------------------|



Riff #4 (1:16 & 2:49):

    All guitars:
D |--------------------------------|
A#|-3------------0--------7--------|
F |-5------------2--------9--------|
D |-4------------1--------8--------|
A#|-3------------0--------7--------|
D#|-3------------0--------7--------|

Play this twice the first time through (@ 1:16), and play it
four times the second time through (@ 2:49)


The structure of the song is:

Riff #1 [Play twice]
Riff #2
Riff #3
Riff #4 [Play twice]
Riff #1 [Play twice]
Riff #2
Riff #3
Riff #4 [Play 4 times]
Riff #1 [Play first part only, and end on the first chord of the second part (6678xx) ]