Chwyty barowe

Podstawowe chwyty gitarowe: a, A, e, E, C, d, D, G mają tę zaletę, że do ich zagrania wystarczy przycisnąć struny z reguły trzema, a czasami czterema palcami, podczas gdy pozostałe struny są puste.

Czasem jednak pojawia się taki akord, który wymaga przyciśnięcia wszystkich sześciu strun.

A ponieważ większość gitarzystów dysponuje pięcioma palcami lewej ręki, trzeba to zrobić trochę inaczej i wykorzystać palec wskazujący do zrobienia tak zwanej "poprzeczki".

I tu właśnie pojawiają się chwyty barowe (bo słówko bar albo barre oznacza w obcych językach właśnie poprzeczkę).

Akordów barowych jest cała masa, ale na szczeście dzięki metodzie, którą zaraz poznasz nie trzeba się ich uczyć na pamięć, wystarczy, że pamiętasz jak po kolei idą dźwięki:

c - cis - d - dis - e - f - fis - g - gis - a - b - h - c

Poprzeczka

Aby zrobić poprzeczkę, przyciśnij mocno wszystkie sześć strun palcem wskazującym do gryfu, na przykład na pierwszym progu. Aby docisk był wyjątkowo silny musisz od drugiej strony gryf docisnąć kciukiem. Na schemacie akordów będzie to wyglądało tak:

o|-1-|---|---|---|
o|-1-|---|---|---|
o|-1-|---|---|---|
o|-1-|---|---|---|
o|-1-|---|---|---|
o|-1-|---|---|---|

Sprawdź czy wszystkie struny czysto brzmią, poćwicz to na różnych progach.

Akord F-dur

Twoim pierwszym akordem barowym będzie często wykorzystywany F.

Ponieważ dźwięk f występuje bezpośrednio po dźwięku e, więc aby otrzymać akord F-dur wystarczy przesunąć akord E-dur o jeden próg wyżej.

Czyli jeżeli E-dur to było:

e |------0------|
H |------0------|
G |------1------|
D |------2------|
A |------2------|
E |------0------|

To F-dur będzie wyglądał na tabulaturze tak:

e |------1------|
H |------1------|
G |------2------|
D |------3------|
A |------3------|
E |------1------|

Ułożenie palców dla tego akordu jest następujące:

    1   2   3   4   5   6   7   8   9   10  11  12
e |-1-|---|---|---|---|---|---|---|---|---|---|---|
H |-1-|---|---|---|---|---|---|---|---|---|---|---|
G |-1-|-2-|---|---|---|---|---|---|---|---|---|---| F-dur
D |-1-|---|-4-|---|---|---|---|---|---|---|---|---|
A |-1-|---|-3-|---|---|---|---|---|---|---|---|---|
E |-1-|---|---|---|---|---|---|---|---|---|---|---|
    ^ bo tutaj jest dźwięk f

Jeżeli ten akord będzie Ci w trakcie piosenek trochę trudno grać, możesz przejściowo skorzystać z wersji uproszczonej, w której przyciskasz palcem wskazującym tylko struny H i e, jednocześnie pomijając podczas gry strunę E:

    1   2   3   4   5   6   7   8   9   10  11  12
e |-1-|---|---|---|---|---|---|---|---|---|---|---|
H |-1-|---|---|---|---|---|---|---|---|---|---|---|
G |---|-2-|---|---|---|---|---|---|---|---|---|---| F-dur
D |---|---|-4-|---|---|---|---|---|---|---|---|---| (uproszczony)
A |---|---|-3-|---|---|---|---|---|---|---|---|---|
x |---|---|---|---|---|---|---|---|---|---|---|---|

Znając ten schemat możesz odnaleźć na gryfie również i inne durowe akordy barre.

Na przykład G-dur powstanie gdy przesuniesz to o kolejne dwa progi, czyli do tak zwanej trzeciej pozycji.

Pozycja to nic innego jak położenie na gryfie palca wskazującego.

    1   2   3   4   5   6   7   8   9   10  11  12
e |---|---|-1-|---|---|---|---|---|---|---|---|---|
H |---|---|-1-|---|---|---|---|---|---|---|---|---|
G |---|---|-1-|-2-|---|---|---|---|---|---|---|---| G-dur
D |---|---|-1-|---|-4-|---|---|---|---|---|---|---|
A |---|---|-1-|---|-3-|---|---|---|---|---|---|---|
E |---|---|-1-|---|---|---|---|---|---|---|---|---|
            ^ bo tutaj jest dźwięk g
e |------3------|
H |------3------|
G |------4------|
D |------5------|
A |------5------|
E |------3------|

Idać dalej, przesuwają ten schemat do piątej pozycji otrzymujesz akord A-dur:

    1   2   3   4   5   6   7   8   9   10  11  12
e |---|---|---|---|-1-|---|---|---|---|---|---|---|
H |---|---|---|---|-1-|---|---|---|---|---|---|---|
G |---|---|---|---|-1-|-2-|---|---|---|---|---|---| A-dur
D |---|---|---|---|-1-|---|-4-|---|---|---|---|---|
A |---|---|---|---|-1-|---|-3-|---|---|---|---|---|
E |---|---|---|---|-1-|---|---|---|---|---|---|---|
                    ^ bo tutaj jest dźwięk a
e |------5------|
H |------5------|
G |------6------|
D |------7------|
A |------7------|
E |------5------|

A w ósmej to już będzie C-dur:

    1   2   3   4   5   6   7   8   9   10  11  12
e |---|---|---|---|---|---|---|-1-|---|---|---|---|
H |---|---|---|---|---|---|---|-1-|---|---|---|---|
G |---|---|---|---|---|---|---|-1-|-2-|---|---|---| C-dur
D |---|---|---|---|---|---|---|-1-|---|-4-|---|---|
A |---|---|---|---|---|---|---|-1-|---|-3-|---|---|
E |---|---|---|---|---|---|---|-1-|---|---|---|---|
                                ^ bo tutaj jest dźwięk c
e |------8------|
H |------8------|
G |------9------|
D |------10-----|
A |------10-----|
E |------8------|

Czyli jeżeli tylko znasz dźwięki struny E, jesteś w stanie na podstawie tego schematu zagrać już całkiem sporo akordów.

To samo możesz zrobić z akordem e-moll, przypominam:

    1   2   3   4   5   6   7   8   9   10  11  12
e |---|---|---|---|---|---|---|---|---|---|---|---|
H |---|---|---|---|---|---|---|---|---|---|---|---|
G |---|---|---|---|---|---|---|---|---|---|---|---| e-moll
D |---|-3-|---|---|---|---|---|---|---|---|---|---|
A |---|-2-|---|---|---|---|---|---|---|---|---|---|
E |---|---|---|---|---|---|---|---|---|---|---|---|

W pierwszej pozycji dostaniesz f-moll:

    1   2   3   4   5   6   7   8   9   10  11  12
e |-1-|---|---|---|---|---|---|---|---|---|---|---|
H |-1-|---|---|---|---|---|---|---|---|---|---|---|
G |-1-|---|---|---|---|---|---|---|---|---|---|---| f-moll
D |-1-|---|-3-|---|---|---|---|---|---|---|---|---|
A |-1-|---|-2-|---|---|---|---|---|---|---|---|---|
E |-1-|---|---|---|---|---|---|---|---|---|---|---|
    ^ bo tutaj jest dźwięk f

W trzeciej g-moll:

    1   2   3   4   5   6   7   8   9   10  11  12
e |---|---|-1-|---|---|---|---|---|---|---|---|---|
H |---|---|-1-|---|---|---|---|---|---|---|---|---|
G |---|---|-1-|---|---|---|---|---|---|---|---|---| g-moll
D |---|---|-1-|---|-3-|---|---|---|---|---|---|---|
A |---|---|-1-|---|-2-|---|---|---|---|---|---|---|
E |---|---|-1-|---|---|---|---|---|---|---|---|---|
            ^ bo tutaj jest dźwięk g

A w piątej a-moll:

    1   2   3   4   5   6   7   8   9   10  11  12
e |---|---|---|---|-1-|---|---|---|---|---|---|---|
H |---|---|---|---|-1-|---|---|---|---|---|---|---|
G |---|---|---|---|-1-|---|---|---|---|---|---|---| a-moll
D |---|---|---|---|-1-|---|-3-|---|---|---|---|---|
A |---|---|---|---|-1-|---|-2-|---|---|---|---|---|
E |---|---|---|---|-1-|---|---|---|---|---|---|---|
                    ^ bo tutaj jest dźwięk a

Na tabulaturze:

     f   g   a
e |--1---3---5--|
H |--1---3---5--|
G |--1---3---5--|
D |--3---5---7--|
A |--3---5---7--|
E |--1---3---5--|

To jeszcze nie wszystko!

Przesuwać możesz również chwyty A-dur i a-moll.

W tym przypadku kierujesz się dźwiękami struny A.

Zaczynamy od akordu A-dur:

    1   2   3   4   5   6   7   8   9   10  11  12
e |---|---|---|---|---|---|---|---|---|---|---|---|
H |---|-4-|---|---|---|---|---|---|---|---|---|---|
G |---|-3-|---|---|---|---|---|---|---|---|---|---| A-dur
D |---|-2-|---|---|---|---|---|---|---|---|---|---|
A |---|---|---|---|---|---|---|---|---|---|---|---|
E |---|---|---|---|---|---|---|---|---|---|---|---|

Na przykład w trzeciej pozycji dostaniesz C-dur:

    1   2   3   4   5   6   7   8   9   10  11  12
e |---|---|-1-|---|---|---|---|---|---|---|---|---|
H |---|---|-1-|---|-4-|---|---|---|---|---|---|---|
G |---|---|-1-|---|-3-|---|---|---|---|---|---|---| C-dur
D |---|---|-1-|---|-2-|---|---|---|---|---|---|---|
A |---|---|-1-|---|---|---|---|---|---|---|---|---|
E |---|---|-1-|---|---|---|---|---|---|---|---|---|
            ^ bo tutaj jest dźwięk c

W piątej D-dur:

    1   2   3   4   5   6   7   8   9   10  11  12
e |---|---|---|---|-1-|---|---|---|---|---|---|---|
H |---|---|---|---|-1-|---|-4-|---|---|---|---|---|
G |---|---|---|---|-1-|---|-3-|---|---|---|---|---| D-dur
D |---|---|---|---|-1-|---|-2-|---|---|---|---|---|
A |---|---|---|---|-1-|---|---|---|---|---|---|---|
E |---|---|---|---|-1-|---|---|---|---|---|---|---|
                    ^ bo tutaj jest dźwięk d

I tak dalej...

Analogicznie w przypadku a-mola:

    1   2   3   4   5   6   7   8   9   10  11  12
e |---|---|---|---|---|---|---|---|---|---|---|---|
H |-1-|---|---|---|---|---|---|---|---|---|---|---|
G |---|-3-|---|---|---|---|---|---|---|---|---|---| a-moll
D |---|-2-|---|---|---|---|---|---|---|---|---|---|
A |---|---|---|---|---|---|---|---|---|---|---|---|
E |---|---|---|---|---|---|---|---|---|---|---|---|

W drugiej pozycji da on h-moll:

    1   2   3   4   5   6   7   8   9   10  11  12
e |---|-1-|---|---|---|---|---|---|---|---|---|---|
H |---|-1-|-2-|---|---|---|---|---|---|---|---|---|
G |---|-1-|---|-4-|---|---|---|---|---|---|---|---| h-moll
D |---|-1-|---|-3-|---|---|---|---|---|---|---|---|
A |---|-1-|---|---|---|---|---|---|---|---|---|---|
E |---|-1-|---|---|---|---|---|---|---|---|---|---|
        ^ bo tutaj jest dźwięk h

A w piątej d-moll:

    1   2   3   4   5   6   7   8   9   10  11  12
e |---|---|---|---|-1-|---|---|---|---|---|---|---|
H |---|---|---|---|-1-|-2-|---|---|---|---|---|---|
G |---|---|---|---|-1-|---|-4-|---|---|---|---|---| d-moll
D |---|---|---|---|-1-|---|-3-|---|---|---|---|---|
A |---|---|---|---|-1-|---|---|---|---|---|---|---|
E |---|---|---|---|-1-|---|---|---|---|---|---|---|
                    ^ bo tutaj jest dźwięk d

I te pe i te de...

Niektórzy stosują jeszcze tę metodę do przesuwania akordów typu d patrząc na dźwięki ze struny D, ale jest to trudniejszy do złapania schemat więc dla początkujących aż nadto wystarczą powyższe schematy.

Czasem strój gitary podnosi się na stałe, zaczepiając na gryf specjalnego klipsa, który nazywa się kapodaster a potocznie kapo.

Kapodaster

Ale początkujący używa go raczej rzadko więc podaję to tylko informacyjnie.


Comments