2000 - Holywood tabs

If you are looking for a specific track press Control and F and type the track name in.



Track One - Godeatgod


Tuning: B, D, D, G, B, E (Source: John 5 interview referenced at the end of the tab)


   

Intro and Verse One: (0:13-0:55)

 

E|-1---1---0---0---|-----------------|

B|---3---3---3---3-|-0-2-3-2---2-3-2-| X6 (all Clean)

G|-----------------|---------2-------|

 

Chorus One: (1:09-1:23) 

 

E|---------|---------|---------|---------|

B|-0-2-0-3-|-3-0-3-2-|-0-2-2-3-|-3-0-3-2-| (all distorted)

G|---------|---------|---------|---------|

  

Intro and Verse Two: (1:23-1:51) 

 

E|-1---1---0---0---|-----------------|

B|---3---3---3---3-|-0-2-3-2---2-3-2-| X4 (all clean)

G|-----------------|---------2-------|

  

Verse Interlude: (1:23-1:26)

 

E|-1-1---0--|

B|-----3----| (all distorted and let final note ring)

G|----------|

 

(1:36-1:37)

 Pick scrape with delay

 

Chorus 2: (1:51-2:20)

 

D|-4-4-4-4-6-6-6-6-7-7-7-7-7-7-7-7---| x4 (All palm muted and distorted) x4 (1:51-2:20)

B|-0-0-0-0-2-2-2-2-3-3-3-3-3-3-3-3---|

 

E|---------|---------|---------|---------|

B|-0-2-0-3-|-3-0-3-2-|-0-2-2-3-|-3-0-3-2-| x2 (all distorted)

G|---------|---------|---------|---------|

 

Outro: (2:20-2:34)

 

D|-7---| (distorted and let ring)

B|-3---|

 

E|-1-1---0--|

B|-----3----| (distorted and let final note ring)

G|----------|

 

Follow by a pick scrape with delay (2:32)

 

  

Notes:

 

If you plan on playing this song in the tuning John used, and the one used for this tab, I suggest that you purchase

a set of heavy gauge strings as the E string is tuned down quite a bit.

 

John 5 Interview: http://www.rotharmy.com/forums/house-music/3070-john-5-aka-john-lowery-quits-marlyn-manson-today.html

 





Track Two - The Love Song


Tuning: D, A, D, G, B, E

 

 

 

Key:

 

/ - Slide upto

\ - Slide down to

<> - Harmonic

 

 

Verse One: (0:20-0:32)

 

E|-------------------------------|

B|-------------------------------|

G|--10-(x16)---------------------|x4(distorted and using a digitech whammy pedal to gradually raise the note an octave higher,

D|-------------------------------|  if you don't have this pedal then you can play a 10 on the g string followed by a 13 on

A|-------------------------------|  the high e string)

D|-------------------------------|

 

 

Chorus One: (0:33-0:47)

 

E|-------------------------------|

B|-------------------------------|

G|-------------------------------|x4 (all distorted)

D|-6-0--0-3-5----6-0--0-3-5-3----| 

A|-6-0--0-3-5----6-0--0-3-5-3----| 

D|-6-0--0-3-5--0-6-0--0-3-5-3----|

 

 

Bridge: (0:47-0:54)

 

E|-------------------------------|

B|-------------------------------|

G|-------------------------------|(distorted and let ring)

D|-0-----------------------------| 

A|-0-----------------------------| 

D|-0-----------------------------|

 

 

Bridge: (0:54-1:01)

 

E|--------------------------------------|

B|--------------------------------------|

G|--------------------------------------| (all distored)

D|-0-0-0-0-2-2-2-2-3-3-3-3-/7-7-7-7-7-7-| 

A|-0-0-0-0-2-2-2-2-3-3-3-3-/7-7-7-7-7-7-| 

D|-0-0-0-0-2-2-2-2-3-3-3-3-/7-7-7-7-7-7-|

 

 

Verse Two: (1:01-1:28)

 

E|-------------------------------------|

B|-------------------------------------|

G|-7-7-7-7-9-9-9-9-10-10-10-10\2-2-2-2/|x4 (all lightly distorted)

D|-------------------------------------| 

A|-5-5-5-5-7-7-7-7-8--8--8--8-\0-0-0-0/| 

D|-------------------------------------|

 

 

Verse Two: (1:15-1:28)

 

E|-------------------------------|

B|-------------------------------|

G|--10-(x16)---------------------|x4(distorted and using a digitech whammy pedal to gradually raise the note an octave higher,

D|-------------------------------|  if you don't have this pedal then you can play a 10 on the g string followed by a 13 on

A|-------------------------------|  the high e string)

D|-------------------------------|

 

 

Chorus Two: (1:28-1:56)

 

E|-------------------------------|

B|-------------------------------|

G|-------------------------------|x8 (all distorted)

D|-6-0--0-3-5----6-0--0-3-5-3----| 

A|-6-0--0-3-5----6-0--0-3-5-3----| 

D|-6-0--0-3-5--0-6-0--0-3-5-3----|

 

 

Bridge: (1:56-2:29)

 

E|-------------------------------------|

B|-------------------------------------|

G|-7-7-7-7-9-9-9-9-10-10-10-10\2-2-2-2/|x5 (all lightly distorted)

D|-------------------------------------| 

A|-5-5-5-5-7-7-7-7-8--8--8--8-\0-0-0-0/| 

D|-------------------------------------|

 

 

Bridge: (2:16-2:22)

 

E|-------------------------------------------------------------------|

B|-------------------------------------------------------------------|

G|-------------------------------------------------------------------| (this is low in the mix but I assure you it is there,

D|-0-0-0-0-0-----0-2-2-2-2-2-2-2---3-3-3-3-<3>----<3>--------7-----7-|  it can be heard through headphones. The harmonic is

A|-0-0-0-0---------2-2-2-2-2-2-2---3-3-3-3---------------------------|  located roughly 4/10 of the distance between the

D|-0-0-0-0---0-0---2-2-2-2-2-2-2-0-3-3-3-3----3-3----7-7-7-7---7-7---|  third and fourth frets - distorted)

 

 

Bridge: (2:23-2:29)

 

E|-------------------------------------------------------------------|

B|-------------------------------------------------------------------|

G|-------------------------------------------------------------------| (this is also low in the mix and distorted)

D|-0--0--0-0-0-0-2-2-2-2-2-----2---------3-----3-7-7-7-7-7-7-7-7-----|  

A|-0--0--0-0-0-0-2-2-2-2-------------------------7-7-7-7-7-7-7-7-----| 

D|-0--0--0-0-0-0-2-2-2-2---2-2---3-3-3-3---3-3---7-7-7-7-7-7-7-7-----| 

 

 

Bridge: (2:23-2:29)

 

E|-10-10-10-10-10-10-10-10-12-12-12-12-12-12-12-12-13-13-13-13-13-13-13-13-17-17-17-17-17-17-17-17|

B|------------------------------------------------------------------------------------------------|

G|------------------------------------------------------------------------------------------------|(distorted)

D|------------------------------------------------------------------------------------------------| 

A|------------------------------------------------------------------------------------------------| 

D|------------------------------------------------------------------------------------------------| 

 

 

Chorus Three: (2:29-2:57)

 

E|-------------------------------|

B|-------------------------------|

G|-------------------------------|x8 (all distorted)

D|-6-0--0-3-5----6-0--0-3-5-3----| 

A|-6-0--0-3-5----6-0--0-3-5-3----| 

D|-6-0--0-3-5--0-6-0--0-3-5-3----|

 

 

Chorus Three: (2:29-2:42)

 

E|-12^-12^-11^-------------------|

B|-------------------------------|

G|-------------------------------|x2 (gradually release the bends - distorted)

D|-------------------------------| 

A|-------------------------------| 

D|-------------------------------|

 

 

Chorus Three: (2:42-2:57)

 

E|-22----------21----------------|

B|-------------------------------|

G|-------------------------------|x2 (ket the notes ring out - distorted)

D|-------------------------------| 

A|-------------------------------| 

D|-------------------------------|






Track Three - The Fight Song

Tuning: E, A, D, G, B, E


 

 

Key:

 

^ - Bend

\ - Slide down to

~ - Vibrato

h - hammer on

p - pull off

 

 

Intro: (0:00-0:04)

 

E|----11-------------------------------------|

B|--------------------0--------------------0-|

G|--------------------0--------------------0-|(Clean)

D|-11------9-11-14-14---11-11-----11-14-14---| 

A|-9-------7-9--12-12---9--9----7-9--12-12---| 

E|-------0--------------------0-0------------|

   

 

Intro: (0:04-0:09)

 

E|-------------------------------------------|

B|-------------------------------------------|

G|-------------------------------------------|x3 (Distorted)

D|-4-4-2-2-4-7-7-7^--------------------------| 

A|-4-4-2-2-4-7-7-7^--------------------------| 

E|-2-2-0-0-2-5-5-5^--------------------------|

 

   

Intro: (0:09-0:11)

 

E|-------------------------------------------|

B|-------------------------------------------|

G|-------------------------------------------|(Distorted)

D|-4-4-2-2-4-2-2-2---------------------------| 

A|-4-4-2-2-4-2-2-2---------------------------| 

E|-2-2-0-0-2-0-0-0---------------------------|

  

Plays the two sections above twice

  

 

Verse One: (0:18-0:40)

 

E|----11-----------------------------------------------------------------------------|

B|--------------------0--------------------0--------------------0--------------------|

G|--------------------0--------------------0--------------------0--------------------|

D|-11------9-11-14-14---11-11-----11-14-14---11-11-9---11-14-14---11-11-9---11-9-9---|x3 (Clean) 

A|-9-------7-9--12-12---9--9----7-9--12-12---9--9--7---9--12-12---9--9--7---9--7-7---| 

E|-------0--------------------0-0------------------0-0------------------0-0--------0-|

 

 

 

Chorus: (0:40-0:46)

 

E|-------------------------------------------|

B|-------------------------------------------|

G|-------------------------------------------|x3 (Distorted)

D|-4-4-2-2-4-7-7-7^--------------------------| 

A|-4-4-2-2-4-7-7-7^--------------------------| 

E|-2-2-0-0-2-5-5-5^--------------------------|

 

  

Chorus: (0:46-0:48)

 

E|-------------------------------------------|

B|-------------------------------------------|

G|-------------------------------------------|(Distorted)

D|-4-4-2-2-4-2-2-2---------------------------| 

A|-4-4-2-2-4-2-2-2---------------------------| 

E|-2-2-0-0-2-0-0-0---------------------------|

 

Play the two sections above twice through

 

  

Bridge: (0:55-1:02)

 

E|-------------------------------------------|

B|-------------------------------------------|

G|-4-4-4-4-4-4-4-4-2-2-2-2-2-2-2-2-----------|x2 (Distorted)

D|-4-4-4-4-4-4-4-4-2-2-2-2-2-2-2-2-----------| 

A|-2-2-2-2-2-2-2-2-0-0-0-0-0-0-0-0-----------| 

E|-------------------------------------------|

 

  

Bridge (1:02-1:10)

 

E|------------------------------------------------------------------------|

B|------------------------------------------------------------------------|

G|-7-7-7-7-7-7-7-7-\4-4-4-4-4-4-4-4-2-2-2-2-2-2-2-2-----------------------|x2 (Distorted)

D|-7-7-7-7-7-7-7-7-\4-4-4-4-4-4-4-4-2-2-2-2-2-2-2-2-2-2-2-2-2-3-----------| 

A|-5-5-5-5-5-5-5-5-\2-2-2-2-2-2-2-2-0-0-0-0-0-0-0-0-2-2-2-2-2-3-----------| 

E|--------------------------------------------------0-0-0-0-0-1-----------|

  

 

Bridge: (0:55-1:10)

 

E|---------------------------------------------------------------------------------------------|

B|-7^-7^-7^-7-7~\-0-7^-7^-7^(release bend)-5^-5^-5^-5-5~\-5^-5^-5^(release bend and slide down)|

G|---------------------------------------------------------------------------------------------|(Distorted)

D|---------------------------------------------------------------------------------------------| 

A|---------------------------------------------------------------------------------------------| 

E|---------------------------------------------------------------------------------------------|

  

 

Bridge: (1:10-1:15)

 

E|-------------------------------------------|

B|-------------------------------------------|

G|-------------------------------------------|x3 (Distorted)

D|-4-4-2-2-4-7-7-7^--------------------------| 

A|-4-4-2-2-4-7-7-7^--------------------------| 

E|-2-2-0-0-2-5-5-5^--------------------------|

 

   

Bridge: (1:15-1:17)

 

E|-------------------------------------------|

B|-------------------------------------------|

G|-------------------------------------------|(Distorted)

D|-4-4-2-2-4-2-2-2---------------------------| 

A|-4-4-2-2-4-2-2-2---------------------------| 

E|-2-2-0-0-2-0-0-0---------------------------|

  

 

Verse Two: (1:17-1:31)

 

E|----11-----------------------------------------------------------------------------|

B|--------------------0--------------------0--------------------0--------------------|

G|--------------------0--------------------0--------------------0--------------------|

D|-11------9-11-14-14---11-11-----11-14-14---11-11-9---11-14-14---11-11-9---11-9-9---|x2 (Clean) 

A|-9-------7-9--12-12---9--9----7-9--12-12---9--9--7---9--12-12---9--9--7---9--7-7---| 

E|-------0--------------------0-0------------------0-0------------------0-0--------0-|

  

 

Bridge: (1:31-1:39)

 

E|-------------------------------------------|

B|-------------------------------------------|

G|-4-4-4-4-4-4-4-4-2-2-2-2-2-2-2-2-----------|x2 (Distorted)

D|-4-4-4-4-4-4-4-4-2-2-2-2-2-2-2-2-----------| 

A|-2-2-2-2-2-2-2-2-0-0-0-0-0-0-0-0-----------| 

E|-------------------------------------------|

 

  

Bridge (1:39-1:47)

 

E|------------------------------------------------------------------------|

B|------------------------------------------------------------------------|

G|-7-7-7-7-7-7-7-7-\4-4-4-4-4-4-4-4-2-2-2-2-2-2-2-2-----------------------|x2 (Distorted)

D|-7-7-7-7-7-7-7-7-\4-4-4-4-4-4-4-4-2-2-2-2-2-2-2-2-2-2-2-2-2-3-----------| 

A|-5-5-5-5-5-5-5-5-\2-2-2-2-2-2-2-2-0-0-0-0-0-0-0-0-2-2-2-2-2-3-----------| 

E|--------------------------------------------------0-0-0-0-0-1-----------|

 

 

Bridge: (1:31-1:47)

 

E|---------------------------------------------------------------------------------------------|

B|-7^-7^-7^-7-7~\-0-7^-7^-7^(release bend)-5^-5^-5^-5-5~\-5^-5^-5^(release bend and slide down)|

G|---------------------------------------------------------------------------------------------|(Distorted)

D|---------------------------------------------------------------------------------------------| 

A|---------------------------------------------------------------------------------------------| 

E|---------------------------------------------------------------------------------------------|

 

  

Chorus: (1:47-1:52)

 

E|-------------------------------------------|

B|-------------------------------------------|

G|-------------------------------------------|x3 (Distorted)

D|-4-4-2-2-4-7-7-7^--------------------------| 

A|-4-4-2-2-4-7-7-7^--------------------------| 

E|-2-2-0-0-2-5-5-5^--------------------------|

 

 

Chorus: (1:52-1:54)

 

E|-------------------------------------------|

B|-------------------------------------------|

G|-------------------------------------------|(Distorted)

D|-4-4-2-2-4-2-2-2---------------------------| 

A|-4-4-2-2-4-2-2-2---------------------------| 

E|-2-2-0-0-2-0-0-0---------------------------|

 

Play the two sections above twice through

 

 

Bridge: (2:01-2:13)

 

 

 

E|------------------------------------------|

B|------------------------------------------|

G|-5-5-5-5-5-5-5-/7-------------------------|x3 (Distorted)

D|-5-5-5-5-5-5-5-/7-7-7-7-7-7-7-7-----------| 

A|-3-3-3-3-3-3-3-/5-7-7-7-7-7-7-7-----------|

E|------------------5-5-5-5-5-5-5-----------|

 

 

Bridge: (2:13-2:16)

 

E|-------------------------------------------|

B|-------------------------------------------|

G|-5-5-5-5-5-5-5-\2-2-2-2-4-4-4-4------------|(Distorted)

D|-5-5-5-5-5-5-5-\2-2-2-2-4-4-4-4------------| 

A|-3-3-3-3-3-3-3-\0-0-0-0-2-2-2-2------------|

E|-------------------------------------------|

 

 

Bridge: (2:04-2:16)

 

 

E|--------------------------------------------------------------------------------------------|

B|-5--5------------------------5--5--5--5----------------------5---5--------------------------|

G|-7^-7^(release bend)-p5------7^-7^-7^-7^-7p5---5h7-7~----5-5---7-7^(release bend)-p5---5----|

D|------------------------7--------------------7---------------------------------------7---7--|(distorted) 

A|--------------------------------------------------------------------------------------------|

E|--------------------------------------------------------------------------------------------|

 

 

Bridge: (continued from above)

 

E|-------------------------------------------|

B|-------------------------------------------|

G|-5-5-5-7^(release bend)-p5---5-------------|(Distorted)

D|---------------------------7---7--7-7-7----| 

A|-------------------------------------------|

E|-------------------------------------------|

 

(the two lead parts are hard to hear in their entirity, but they are there)

 

 

Chorus: (2:16-2:22)

 

E|-------------------------------------------|

B|-------------------------------------------|

G|-------------------------------------------|x3 (Distorted)

D|-4-4-2-2-4-7-7-7^--------------------------| 

A|-4-4-2-2-4-7-7-7^--------------------------| 

E|-2-2-0-0-2-5-5-5^--------------------------|

 

  

Chorus: (2:22-2:24)

 

E|-------------------------------------------|

B|-------------------------------------------|

G|-------------------------------------------|(Distorted)

D|-4-4-2-2-4-2-2-2---------------------------| 

A|-4-4-2-2-4-2-2-2---------------------------| 

E|-2-2-0-0-2-0-0-0---------------------------|

  

Play the two sections above five times

 

 

Chorus: (2:31-2:54)

 

E|-------------------------------------------|

B|--------------12^\-------------------------|

G|--9^-9^-9^-9^------------------------------|x12  (played quickly - Distorted)

D|-------------------------------------------| 

A|-------------------------------------------| 

E|-------------------------------------------|

 

 





Track Four - Disposable Teens

 


Tuning: D, A, D, G, B, E

 

 

Key:

 

x - deaden strings

^ - bend

 

 

Intro: (0:00-0:02)

 

E|----------------------------------------|

B|----------------------------------------|

G|-2--------------------------------------|(played with octaver and flanger pedals - distorted)

D|-5^-(gradually release bend)------------| 

A|----------------------------------------| 

D|----------------------------------------|

 

 

Intro: (0:02-0:16)

 

E|------------------------------------------|

B|------------------------------------------|

G|------------------------------------------|x4 (distorted)

D|-7-7-5-10-7-7-7-7-5-7\-x-x-x--------------| 

A|-5-5-3-8--5-5-5-5-3-5\-x-x-x--------------| 

D|-----------------------x-x-x--------------|

 

 

Verse One: (0:16-0:37)

 

E|--------------------------------------------------------------------------------|

B|--------------------------------------------------------------------------------|

G|--------------------------------------------------------------------------------|x3 (distorted)

D|-----------------------------------------------------3^(release bend back to 3)-| 

A|-0-0-x-x-x-x-0-0-x-x-x-x-x-x-x-0-0-x-x-x-x-0-0-x-x-0-3^(release bend back to 3)-| 

D|-0-0-x-x-x-x-0-0-x-x-x-x-x-x-x-0-0-x-x-x-x-0-0-x-x-0-3^(release bend back to 3)-|

 

 

Pre-Chorus: (0:37-0:44)

 

E|------------------------------------------|

B|------------------------------------------|

G|------------------------------------------|x2 (distorted)

D|-7-7-5-10-7-7-7-7-5-7\-x-x-x--------------| 

A|-5-5-3-8--5-5-5-5-3-5\-x-x-x--------------| 

D|-----------------------x-x-x--------------|

 

 

Verse Two: (0:44-0:59)

 

E|--------------------------------------------------------------------------------|

B|--------------------------------------------------------------------------------|

G|--------------------------------------------------------------------------------|x2 (distorted)

D|-----------------------------------------------------3^(release bend back to 3)-| 

A|-0-0-x-x-x-x-0-0-x-x-x-x-x-x-x-0-0-x-x-x-x-0-0-x-x-0-3^(release bend back to 3)-| 

D|-0-0-x-x-x-x-0-0-x-x-x-x-x-x-x-0-0-x-x-x-x-0-0-x-x-0-3^(release bend back to 3)-|

 

 

Pre-Chorus: (0:59-1:13)

 

E|------------------------------------------|

B|------------------------------------------|

G|------------------------------------------|x4(distorted)

D|-7-7-5-10-7-7-7-7-5-7\-x-x-x--------------| 

A|-5-5-3-8--5-5-5-5-3-5\-x-x-x--------------| 

D|-----------------------x-x-x--------------|

 

 

Chorus: (1:13-1:27)

 

E|--------------------------------------------------------------------------------|

B|--------------------------------------------------------------------------------|

G|--------------------------------------------------------------------------------|x2 (distorted)

D|-----------------------------------------------------3^(release bend back to 3)-| 

A|-0-0-x-x-x-x-0-0-x-x-x-x-x-x-x-0-0-x-x-x-x-0-0-x-x-0-3^(release bend back to 3)-| 

D|-0-0-x-x-x-x-0-0-x-x-x-x-x-x-x-0-0-x-x-x-x-0-0-x-x-0-3^(release bend back to 3)-|

 

 

Pre-Chorus: (1:27-1:42)

 

E|------------------------------------------|

B|------------------------------------------|

G|------------------------------------------|x4(distorted)

D|-7-7-5-10-7-7-7-7-5-7\-x-x-x--------------| 

A|-5-5-3-8--5-5-5-5-3-5\-x-x-x--------------| 

D|-----------------------x-x-x--------------|

 

 

Bridge: (1:42-1:49)

 

E|------------------------------------------|

B|------------------------------------------|

G|------------------------------------------|x2(distorted)

D|-7-7-5-10-7-7-7-7-5-7\-x-x-x--------------| 

A|-5-5-3-8--5-5-5-5-3-5\-x-x-x--------------| 

D|-----------------------x-x-x--------------|

 

 

Bridge: (1:42-1:49)

 

E|----------------------------------------|

B|----------------------------------------|

G|----------------------------------------|x2(played with octaver and flanger pedals - distorted)

D|------4^-------4^-----------------------| 

A|-/5-------/5----------------------------| 

D|----------------------------------------|

 

 

Bridge: (1:49-2:03)

 

E|----------------------------------------|

B|----------------------------------------|

G|----------------------------------------|(distorted)

D|-5-----6--------------------------------|

A|-3-x61-4--------------------------------| 

D|----------------------------------------|

 

 

 

Bridge: (2:03-2:17)

 

E|----------------------------------------|

B|----------------------------------------|

G|----------------------------------------|(played with octaver and flanger pedals - distorted)

D|-0---0---0---0--------------------------|

A|-4^--4^--4^--4^-------------------------| 

D|----------------------------------------|

 

 

Bridge: (2:17-2:17)

 

E|----------------------------------------|

B|----------------------------------------|

G|----------------------------------------|(distorted)

D|-5-6------------------------------------|

A|-3-4------------------------------------| 

D|----------------------------------------|

 

 

 

Outro: (2:17-3:00)

 

E|------------------------------------------|

B|------------------------------------------|

G|------------------------------------------|x12 (distorted)

D|-7-7-5-10-7-7-7-7-5-7\-x-x-x--------------| 

A|-5-5-3-8--5-5-5-5-3-5\-x-x-x--------------| 

D|-----------------------x-x-x--------------|

 

 

Outro (2:46-3:00)

 

E|----------------------------------------|

B|----------------------------------------|

G|----------------------------------------|x4(played with octaver and flanger pedals - distorted)

D|------4^-------4^-----------------------| 

A|-/5-------/5----------------------------| 

D|----------------------------------------|

 






Track Five: Target Audience (Narcissus Narcosis)

Tuning: D, A, D, G, B, E


 

Key:

 

^ - Bend

\ - Slide down

 

Intro and Verse One: (0:08-0:34)

 

E|----------0-----1-----0---------------------------------|

B|---3--------3-----3-----3---2-------0-----1-----0-----0-|

G|-----2--------2-----2-----2-----2-----2-----2-----2-----|

D|-0------0-------------------------2-----2-----2-----2---|x4  (clean with chorus) 

A|------------------------------0-------------------------|  

D|--------------------------------------------------------|

 

 

Verse One: (0:33-0:47)

 

E|-----------------------------------------------------------|

B|-1---0-----1-----0-----0 (hammer onto the next 1 to repeat)|

G|---2---2-----2-----2---------------------------------------|

D|---------2-----2-----2-------------------------------------|x4  (clean with chorus) 

A|-----------------------------------------------------------| 

D|-----------------------------------------------------------|

 

 

Verse One: (0:48-0:54)

 

E|----------0-----1-----0---------------------------------|

B|---3--------3-----3-----3---2-------0-----1-----0-----0-|

G|-----2--------2-----2-----2-----2-----2-----2-----2-----|

D|-0------0-------------------------2-----2-----2-----2---|x1  (clean with chorus) 

A|------------------------------0-------------------------|  

D|--------------------------------------------------------|

 

 

Verse One: (0:48-0:54)

 

E|----------0-----1-----0----------------------0-----------|

B|---3--------3-----3-----3---2-------0--------1-----------|

G|-----2--------2-----2-----2-----2-----2------2-----------|

D|-0------0-------------------------2-----2----2-----------|x1  (clean with a tremello effect) 

A|------------------------------0--------------------------|  

D|---------------------------------------------------------|

 

 

Chorus: (0:54-1:14)

 

 

E|-----10--------------------------------10------------------------------|

B|-----13^(release bend)\----------------13^(release bend)\--------------|

G|-----------------------------------------------------------------------|

D|-0-0---------------------3-3-x-x-x-2-2--------------------1-1-1/3-3-3--|x3  (distorted) 

A|-0-0---------------------3-3-x-x-x-2-2--------------------1-1-1/3-3-3--|  

D|-0-0---------------------3-3-x-x-x-2-2--------------------1-1-1/3-3-3--|

 

 

Chorus: (1:14)

 

E|-----------------------------------------------------------------------|

B|-----------------------------------------------------------------------|

G|-----------------------------------------------------------------------|

D|-0---------------------------------------------------------------------|(let ring - distorted) 

A|-0---------------------------------------------------------------------| 

D|-0---------------------------------------------------------------------|

 

 

Verse Two: (1:14-1:34)

 

E|----------0-----1-----0---------------------------------|

B|---3--------3-----3-----3---2-------0-----1-----0-----0-|

G|-----2--------2-----2-----2-----2-----2-----2-----2-----|

D|-0------0-------------------------2-----2-----2-----2---|x3  (clean with chorus) 

A|------------------------------0-------------------------|  

D|--------------------------------------------------------|

 

 

Verse Two: (1:34-1:47)

 

E|-----------------------------------------------------------|

B|-1---0-----1-----0-----0 (hammer onto the next 1 to repeat)|

G|---2---2-----2-----2---------------------------------------|

D|---------2-----2-----2-------------------------------------|x4  (clean with chorus) 

A|-----------------------------------------------------------| 

D|-----------------------------------------------------------|

 

 

Verse Two: (1:47-1:54)

 

E|----------0-----1-----0---------------------------------|

B|---3--------3-----3-----3---2-------0-----1-----0-----0-|

G|-----2--------2-----2-----2-----2-----2-----2-----2-----|

D|-0------0-------------------------2-----2-----2-----2---|x1  (clean with chorus) 

A|------------------------------0-------------------------|  

D|--------------------------------------------------------|

 

 

Verse One: (1:47-1:54)

 

E|----------0-----1-----0----------------------0-----------|

B|---3--------3-----3-----3---2-------0--------1-----------|

G|-----2--------2-----2-----2-----2-----2------2-----------|

D|-0------0-------------------------2-----2----2-----------|x1  (clean with a tremello effect) 

A|------------------------------0--------------------------|  

D|---------------------------------------------------------|

 

 

Chorus: (1:54-2:34)

 

E|-----10--------------------------------10------------------------------|

B|-----13^(release bend)\----------------13^(release bend)\--------------|

G|-----------------------------------------------------------------------|

D|-0-0---------------------3-3-x-x-x-2-2--------------------1-1-1/3-3-3--|x6  (distorted) 

A|-0-0---------------------3-3-x-x-x-2-2--------------------1-1-1/3-3-3--|  

D|-0-0---------------------3-3-x-x-x-2-2--------------------1-1-1/3-3-3--|

 

 

Chorus: (2:21-2:34)

 

E|-----------------------------------10----------------------------------|

B|-------9^---------9^(release bend)----------9^-------9^----------------|

G|-7-5-5-----7-5-5----------------------7-5-5----7-5-5-------------------|

D|-----------------------------------------------------------------------|(distorted)

A|-----------------------------------------------------------------------|  

D|-----------------------------------------------------------------------|

 

 

Bridge: (2:34-3:02)

 

E|-----------------------------------------------------------------------|

B|-----------------------------------------------------------------------|

G|-----------------------------------------------------------------------|

D|-----------------------------------------------------------------------|x5 (distorted)

A|---2---2^(release)-----------------------------------------------------|  

D|-2---2-------------3/7-3-2---------------------------------------------|

 

 

 

Bridge: (3:02-3:07)

 

E|-----------------------------------------------------------------------|

B|-----------------------------------------------------------------------|

G|-----------------------------------------------------------------------|

D|-----------------------------------------------------------------------|(distorted)

A|---2---2^(release)-----------------------------------------------------|  

D|-2---2-------------3/7-3-2-(lower whammy bar)--------------------------|

 

 

Bridge: (3:08-3:15)

 

E|-------------------------------------------------------------------------|

B|-------------------------------------------------------------------------|

G|-7-7-7-7-7-7-7-7-10-10-10-10-10-10-10-10-9-9-9-9-9-9-9-9-8-8-8-8-8-8-8-8-|

D|-x-x-x-x-x-x-x-x-x--x--x--x--x--x--x--x--x-x-x-x-x-x-x-x-x-x-x-x-x-x-x---|x5 (distorted)

A|-5-5-5-5-5-5-5-5-8--8--8--8--8--8--8--8--7-7-7-7-7-7-7-7-6-6-6-6-6-6-6-6-|  

D|-------------------------------------------------------------------------|

 

 

Bridge: (3:14-3:15)

 

E|-13-13-13-13-------------------------|

B|-------------------------------------|

G|-------------------------------------|(distorted)

D|-------------------------------------|

A|-------------------------------------|  

D|-------------------------------------|

 

 

 

 

Chorus and Outro: (3:15-4:08)

 

E|-----------------------------------------------|

B|-----------------------------------------------|

G|-----------------------------------------------|

D|-0-0-x-x--x-3-3-x-x--x-2-2-x-x--x-1-1-1/3-3-3--|x8  (distorted) 

A|-0-0-x-x--x-3-3-x-x--x-2-2-x-x--x-1-1-1/3-3-3--|  

D|-0-0-x-x--x-3-3-x-x--x-2-2-x-x--x-1-1-1/3-3-3--|

 

 

 

Chorus and Outro: (3:15-4:08)

 

E|-------------------------------------------------------------------------|

B|-------------------------------------------------------------------------|

G|-7-7-7-7-7-7-7-7-10-10-10-10-10-10-10-10-9-9-9-9-9-9-9-9-8-8-8-8-8-8-8-8-|

D|-x-x-x-x-x-x-x-x-x--x--x--x--x--x--x--x--x-x-x-x-x-x-x-x-x-x-x-x-x-x-x---|x8 (distorted)

A|-5-5-5-5-5-5-5-5-8--8--8--8--8--8--8--8--7-7-7-7-7-7-7-7-6-6-6-6-6-6-6-6-|  

D|-------------------------------------------------------------------------|

 

 

Chorus and Outro: (3:15-3:42)

 

E|-12-12-12-12-------------13-13-13-13-13-13-13-13--|

B|-------------11-11-11-11--------------------------|

G|--------------------------------------------------|x8 (distorted)

D|--------------------------------------------------|

A|--------------------------------------------------|  

D|--------------------------------------------------|

 

 

Chorus and Outro: (3:42-4:08)

 

E|-----------------------------------10---|

B|-------9^---------9^(release bend)------|

G|-7-5-5-----7-5-5------------------------|

D|----------------------------------------|x5 (distorted)

A|----------------------------------------|  

D|----------------------------------------|

 

 

Outro: (4:09)

 

E|------------------------------------------|

B|------------------------------------------|

G|------------------------------------------|

D|-0-0--------------------------------------|(distorted)

A|-0-0--------------------------------------|  

D|-0-0--------------------------------------|

 

  





Track Six - President Dead

Tuning: E, A, D, G, B, E

 

 

Key:

 

\ - Slide down

/ - Slide up

x - deaden strings

 

 

Intro: (0:01-0:10)

 

E|-----------------------------------|

B|-----------------------------------|

G|------15-15-15-15\-/------12-12-12-|x3 (distorted)

D|-5-2-------------------------------| 

A|-5-2--13-13-13-13\-/10-10-10-10-10-|  

E|-3-0----------------0--0-----------|

  

 

Intro: (0:10-0:13)

 

E|-----------------------------------|

B|-----------------------------------|

G|-7--7--7-7-7-7\9-9\-----------------| (distorted)

D|-7--7--7-7-7-7/9-9\----------------| 

A|-5--5--5-5-5-5/7-7\----------------|  

E|-----------------------------------|

 

Repeat the above two sections twice

 

  

Bridge: (0:50-0:51)

 

E|----------------------------------|

B|----------------------------------|

G|-x-x-x-x--------------------------|

D|-x-x-x-x--------------------------| 

A|-x-x-x-x--------------------------|  

E|----------------------------------|

 

 

Chorus: (0:51-1:04)

 

E|-----------------------------------------------------------------|

B|-----------------------------------------------------------------|

G|-----------------5-5-5-5-5-5-5-5---------------------------------|x2 (distorted)

D|-7-7-7-7-7-7-7-7-5-5-5-5-5-5-5-5-5-5-5-5-5-5-5-5-4-4-4-4-3-3-3-3-| 

A|-7-7-7-7-7-7-7-7-3-3-3-3-3-3-3-3-5-5-5-5-5-5-5-5-4-4-4-4-3-3-3-3-| 

E|-5-5-5-5-5-5-5-5-----------------3-3-3-3-3-3-3-3-2-2-2-2-1-1-1-1-|

  

 

Chorus: (0:51-1:04)

 

E|--------------------------------------------------------------------------------------------------|

B|-10-10-10-10-10-10-10-10-13-13-13-13-13-13-13-13-15-15-15-15-15-15-15-15-17-17-17-17-20-20-20-20--|

G|--------------------------------------------------------------------------------------------------|

D|-7--7--7--7--7--7--7--7--10-10-10-10-10-10-10-10-12-12-12-12-12-12-12-12-14-14-14-14-17-17-17-17--|x2 (distored) 

A|--------------------------------------------------------------------------------------------------| 

E|--------------------------------------------------------------------------------------------------|

 

  

Bridge: (1:04-1:13)

 

E|-----------------------------------|

B|-----------------------------------|

G|------15-15-15-15\-/------12-12-12-|x3 (distorted)

D|-5-2-------------------------------| 

A|-5-2--13-13-13-13\-/10-10-10-10-10-|  

E|-3-0----------------0--0-----------|

 

  

Bridge: (1:13-1:17)

 

E|-----------------------------------|

B|-----------------------------------|

G|-7--7--7-7-7-7\9-9\-----------------| (distorted)

D|-7--7--7-7-7-7/9-9\----------------| 

A|-5--5--5-5-5-5/7-7\----------------|  

E|-----------------------------------|

  

 

Verse Two: (1:17-1:29)

 

E|--------------------------------------------------------------------------------------------------------|

B|--------------------------------------------------------------------------------------------------------|

G|-----x----------------------x----------<5>x-----x-x-x----------x----------------------------------------|(distorted)

D|-----x----------------------x----------<5>x-----x-x-x----------x------<2.3>-----------7--7--7-7-7-7/9-9-| 

A|-5-2-x-<2.3>-2-<2.3>-<2.3>--x-2--5-5-2----x--2--x-x-x-2-5-5-2--x-<2.3>------5-5-5-2-5-5--5--5-5-5-5/7-7-|  

E|-3-0-x-------0----------------0--3-3-0-------0--x-x-x-0-3-3-0---------------3-3-3-0-3-------------------|

 

  

Verse Two: (1:29-1:42)

 

E|-------------------------------------------------------------------------------------------------------|

B|-------------------------------------------------------------------------------------------------------|

G|-----x-x---------------x----------<2.3>--<2.3>----x-x-x---------x-x------------x-----------------------|(distorted)

D|-----x-x---------------x--------------------------x-x-x---------x-x------------x-----7--7--7-7-7-7-9-9-|

A|-5-2-x-x-2-<2.3>-<2.3>-x--2-5-5-2----<2.3>--------x-x-x-2-5-5-2-x-x------<2.3>-x-2-5-5--5--5-5-5-5/7-7-|

E|-3-0-----0----------------0-3-3-0-----------------------0-3-3-0-----<2.3>--------0-3-------------------|

 

Follow the link provided at the end of this tab to find the locations of the harmonics used here on the guitars fretboard

 

  

Bridge: (1:41-1:42)

 

E|----------------------------------|

B|----------------------------------|

G|-x-x-x-x--------------------------|

D|-x-x-x-x--------------------------| 

A|-x-x-x-x--------------------------|  

E|----------------------------------|

 

  

Chorus: (1:42-1:55)

 

E|-----------------------------------------------------------------|

B|-----------------------------------------------------------------|

G|-----------------5-5-5-5-5-5-5-5---------------------------------|x2 (distorted)

D|-7-7-7-7-7-7-7-7-5-5-5-5-5-5-5-5-5-5-5-5-5-5-5-5-4-4-4-4-3-3-3-3-| 

A|-7-7-7-7-7-7-7-7-3-3-3-3-3-3-3-3-5-5-5-5-5-5-5-5-4-4-4-4-3-3-3-3-| 

E|-5-5-5-5-5-5-5-5-----------------3-3-3-3-3-3-3-3-2-2-2-2-1-1-1-1-|

 

  

Chorus: (1:42-1:48)

 

E|--------------------------------------------------------------------------------------------------|

B|-10-10-10-10-10-10-10-10-13-13-13-13-13-13-13-13-15-15-15-15-15-15-15-15-17-17-17-17-20-20-20-20--|

G|--------------------------------------------------------------------------------------------------|

D|-7--7--7--7--7--7--7--7--10-10-10-10-10-10-10-10-12-12-12-12-12-12-12-12-14-14-14-14-17-17-17-17--|x2 (distored) 

A|--------------------------------------------------------------------------------------------------| 

E|--------------------------------------------------------------------------------------------------|

 

  

Bridge: (1:55-1:570

 

E|-----------------------------------|

B|-10~-------------------------------|

G|-----------------------------------|(let ring - distorted)

D|-----------------------------------| 

A|-----------------------------------|  

E|-----------------------------------|

 

  

Bridge: (1:55-2:07)

 

E|-----------------------------------------|

B|-----------------------------------------|

G|-----------------------------------------|(let all chords ring and allow last chord to feedback - distorted)

D|-9\-2-9\-5-------------------------------| 

A|-9\-2-9\-5-------------------------------|  

E|-7\-0-7\-3-------------------------------|

 

 

Solo (2:07-2:20)

 

E|-------------------10----------------------------------------|

B|---~------------------10-----7p0------5~-----8^(gradual bend)|

G|-----------11---11-------7/4------------4~-------------------|

D|-----9--------9----------------------------------------------|x2 (distorted) 

A|-------7/9-----------------------7/5-------------------------|  

E|-5/7---------------------------------------------------------|

 

  

Bridge: (2:20-2:32)

 

E|-17----17-17----17-17----17-17----17-17----17-17----17-17----17-17----17-17----17-17----17-17---|

B|----16-------16-------16-------16-------16-------16-------16-------16-------16-------16---------|

G|------------------------------------------------------------------------------------------------|

D|------------------------------------------------------------------------------------------------|xs (distored) 

A|------------------------------------------------------------------------------------------------|  

E|------------------------------------------------------------------------------------------------|

 

  

Bridge: (2:20-2:32)

 

E|-----------------------------------------------------------------|

B|-----------------------------------------------------------------|

G|-----------------5-5-5-5-5-5-5-5---------------------------------|x2 (distorted)

D|-7-7-7-7-7-7-7-7-5-5-5-5-5-5-5-5-5-5-5-5-5-5-5-5-4-4-4-4-3-3-3-3-| 

A|-7-7-7-7-7-7-7-7-3-3-3-3-3-3-3-3-5-5-5-5-5-5-5-5-4-4-4-4-3-3-3-3-| 

E|-5-5-5-5-5-5-5-5-----------------3-3-3-3-3-3-3-3-2-2-2-2-1-1-1-1-|

 

  

Chorus: (2:32-3:10)

 

E|-----------------------------------------------------------------|

B|-----------------------------------------------------------------|

G|-----------------5-5-5-5-5-5-5-5---------------------------------|x6 (distorted)

D|-7-7-7-7-7-7-7-7-5-5-5-5-5-5-5-5-5-5-5-5-5-5-5-5-4-4-4-4-3-3-3-3-| 

A|-7-7-7-7-7-7-7-7-3-3-3-3-3-3-3-3-5-5-5-5-5-5-5-5-4-4-4-4-3-3-3-3-| 

E|-5-5-5-5-5-5-5-5-----------------3-3-3-3-3-3-3-3-2-2-2-2-1-1-1-1-|

 

 

Chorus: (2:32-3:10)

 

E|--------------------------------------------------------------------------------------------------|

B|-10-10-10-10-10-10-10-10-13-13-13-13-13-13-13-13-15-15-15-15-15-15-15-15-17-17-17-17-20-20-20-20--|

G|--------------------------------------------------------------------------------------------------|

D|-7--7--7--7--7--7--7--7--10-10-10-10-10-10-10-10-12-12-12-12-12-12-12-12-14-14-14-14-17-17-17-17--|x6 (distorted) 

A|--------------------------------------------------------------------------------------------------| 

E|--------------------------------------------------------------------------------------------------|

 

 

Outro: (3:10)

 

E|-----------------------------------|

B|-----------------------------------|

G|-----------------------------------|(distorted)

D|-5-7\------------------------------| 

A|-5-7\------------------------------|  

E|-3-5\------------------------------|

 

 

 

Notes:

 

Harmonic link: http://www.igdb.co.uk/pages/techniques/harmonics.htm







Track Seven - In the Shadow of the Valley of Death

Tuning: E, A, D, G, B, E


As this song is composed of standard chords, as opposed to power chords, this tab will appear different to the others. Also

the transition from Asus2 to Am is achieved by using a hammer on.



Chords used:


E|---0-----0-----3-----0-----1-----3-----0--|

B|---0-----1-----3-----1-----1-----3-----0--|

G|---2-----2-----0-----0-----2-----0-----0--|

D|---2-----2-----0-----2-----3-----5-----2--|  

A|---0-----0-----2-----3-----3-----5-----2--|  

E|---------------3-----------1-----------0--|

   Asus2  Am     G     C     F     D     Em



Intro: (0:00-0:19)


Asus 2  Amin x2


 


Verse One: (0:19-1:08)


We have no future, heaven wasn't made for me

Asus2      Am      Asus2                  Am



We burn ourselves to hell, as fast at it can be  

G                Asus2 Am  G           Asus2 Am



I wish that I could be the king

C              D            F



Then I'd know that I am not alone

C                  D



Bridge: (1:08-1:21)


Asus 2  Amin x2



Verse Two: (1:21-2:10)


Maggots put on shirts, sell eachother shit

Asus2          Am      Asus2       Am



Sometimes I feel so worthless, sometimes I feel discarded

G                   Asus2 Am   G   Asus2 Am



I wish that I was good enough

C           D               F



The I'd know that I am not alone

C    D



Outro: (2:10-4:10)


Am    G    F    Em      Repeat this progression until the end of the song




Outro: (2:10-4:10)


E|-8------8------8------------------|

B|---10-----10-----10---------------|

G|------9------9--------------------|repeat until the end of the song

D|----------------------------------|  

A|----------------------------------|  

E|----------------------------------|







Track Eight - Cruci-fiction in Space

Tuning: B,F#,B,E,G#,C#


Key:


\ - Slide down


Intro and Verse One: (0:00-1:16)


C#--------------|

G#--------------|

E---------------|(repeated many times - palm muted and distorted)

B---2--2--2--2--|

F#--2--2--2--2--|

B---2--2--2--2--|


Chorus: (1:16-1:36)


C#-------------------|

G#-------------------|

E--9-9-9-7-9-----9-7-|x4 (distorted)

B--9-9-9-7-9--5--9-7-|

F#-7-7-7-5-7--5--7-5-|

B-------------5------|


Bridge and Verse Two: (1:36-2:04)


C#--------------|

G#--------------|

E---------------|(repeated many times - palm muted and distorted)

B---2--2--2--2--|

F#--2--2--2--2--|

B---2--2--2--2--|


Chorus: (2:04-2:24)


C#-------------------|

G#-------------------|

E--9-9-9-7-9-----9-7-|x4  (distorted)

B--9-9-9-7-9--5--9-7-|

F#-7-7-7-5-7--5--7-5-|

B-------------5------|


Bridge: (2:24-2:43)


C#--------------|

G#--------------|

E--9-9-9-9-9\5--|x4 (distorted and let final chord ring)

B--9-9-9-9-9\5--|

F#-7-7-7-7-7\3--|

B---------------|


Bridge: (2:43-3:22)


C#-----------------------|

G#-----------------------|

E------------------------|

B--8-7-5-2-0-0-2-0-2-----|x8

F#-8-7-5-2-0-0-2-0-2-----|

B--8-7-5-2-0-0-2-0-2-----|


Verse Three and Outro (3:22-4:48)


C#--------------|

G#--------------|

E---------------|(repeated until the end of the song - palm muted and distorted)

B---2--2--2--2--|

F#--2--2--2--2--|

B---2--2--2--2--|


 






Track Nine - A Place in the Dirt

Tuning: E, A, D, G, B, E



Key:


\ - Slide up


/ - Slide down 



Verse One: (0:00-0:32)



E|-2-2-2-2-2-2-2-2--2-2-2-2-2-2-2-2----------------|

B|-3-3-3-3-3-3-3-3--2-2-2-2-2-2-2-2----------------|

G|-4-4-4-4-4-4-4-4--3-3-3-3-3-3-3-3----------------|x4 (played very quietly and with phaser and distortion)

D|-4-4-4-4-4-4-4-4--4-4-4-4-4-4-4-4----------------|  

A|-2-2-2-2-2-2-2-2--4-4-4-4-4-4-4-4----------------| 

E|------------------2-2-2-2-2-2-2-2----------------|


Verse One: (0:32-0:47)


E|-2-2-2-2-2-2-2-2--5-5-5-5-5-5-5-5--3-3-3-3-3-3-3-3--2-|

B|-3-3-3-3-3-3-3-3--5-5-5-5-5-5-5-5--3-3-3-3-3-3-3-3--2-|

G|-4-4-4-4-4-4-4-4--6-6-6-6-6-6-6-6--4-4-4-4-4-4-4-4--3-| (let final chord ring - played quietly and with phaser and distortion)

D|-4-4-4-4-4-4-4-4--7-7-7-7-7-7-7-7--5-5-5-5-5-5-5-5--4-|  

A|-2-2-2-2-2-2-2-2--7-7-7-7-7-7-7-7--5-5-5-5-5-5-5-5--4-| 

E|------------------5-5-5-5-5-5-5-5--3-3-3-3-3-3-3-3--2-|


Verse One: (0:47-1:03)


E|-2-2-2-2-2-2-2-2--2-2-2-2-2-2-2-2----------------|

B|-3-3-3-3-3-3-3-3--2-2-2-2-2-2-2-2----------------|

G|-4-4-4-4-4-4-4-4--3-3-3-3-3-3-3-3----------------| x2 (lightly distorted)

D|-4-4-4-4-4-4-4-4--4-4-4-4-4-4-4-4----------------|  

A|-2-2-2-2-2-2-2-2--4-4-4-4-4-4-4-4----------------| 

E|------------------2-2-2-2-2-2-2-2----------------|



Verse One: (1:03-1:19) 


E|-2-2-2-2-2-2-2-2--5-5-5-5-5-5-5-5--3-3-3-3-3-3-3-3--2-2-2-2-2-2-2-2------|

B|-3-3-3-3-3-3-3-3--5-5-5-5-5-5-5-5--3-3-3-3-3-3-3-3--2-2-2-2-2-2-2-2------|

G|-4-4-4-4-4-4-4-4--6-6-6-6-6-6-6-6--4-4-4-4-4-4-4-4--3-3-3-3-3-3-3-3------|(lightly distorted)

D|-4-4-4-4-4-4-4-4--7-7-7-7-7-7-7-7--5-5-5-5-5-5-5-5--4-4-4-4-4-4-4-4------|  

A|-2-2-2-2-2-2-2-2--7-7-7-7-7-7-7-7--5-5-5-5-5-5-5-5--4-4-4-4-4-4-4-4------| 

E|------------------5-5-5-5-5-5-5-5--3-3-3-3-3-3-3-3--2-2-2-2-2-2-2-2------|


Verse One: (1:10-1:19)


E|-------------------------------------------------------------------------------------------------|

B|----12-12----12-12----12-12----12-12----12-12----12-12----12-12----12-12----12-12----12-12----12-|

G|-11-------11-------11-------11-------11-------11-------11-------11-------11-------11-------11----| (distorted and gradually raise volume)

D|-------------------------------------------------------------------------------------------------|  

A|-------------------------------------------------------------------------------------------------| 

E|-------------------------------------------------------------------------------------------------|


Chorus: (1:19-1:42)


E|-------------------------------------------------|

B|-------------------------------------------------|

G|-------------------------------------------------| x3 (distorted)

D|-5-5-5-5-5-5-5-5\8-8-8-8-8-8-8-8/----------------|  

A|-5-5-5-5-5-5-5-5\8-8-8-8-8-8-8-8/----------------| 

E|-3-3-3-3-3-3-3-3\6-6-6-6-6-6-6-6/----------------|


Chorus: (1:42-1:50)


E|-------------------------------------------------|

B|-------------------------------------------------|

G|-------------------------------------------------|(distorted)

D|-5-5-5-5-5-5-5-5/4-4-4-4-4-4-4-4-----------------|  

A|-5-5-5-5-5-5-5-5/4-4-4-4-4-4-4-4-----------------| 

E|-3-3-3-3-3-3-3-3/2-2-2-2-2-2-2-2-----------------|


Verse Two: (1:50-2:06)


E|-2-2-2-2-2-2-2-2--2-2-2-2-2-2-2-2----------------|

B|-3-3-3-3-3-3-3-3--2-2-2-2-2-2-2-2----------------|

G|-4-4-4-4-4-4-4-4--3-3-3-3-3-3-3-3----------------| x2 (lightly distorted)

D|-4-4-4-4-4-4-4-4--4-4-4-4-4-4-4-4----------------|  

A|-2-2-2-2-2-2-2-2--4-4-4-4-4-4-4-4----------------| 

E|------------------2-2-2-2-2-2-2-2----------------|


Verse One: (2:06-2:18) 


E|-2-2-2-2-2-2-2-2--5-5-5-5-5-5-5-5--3-3-3-3-3-3-3-3--2-|

B|-3-3-3-3-3-3-3-3--5-5-5-5-5-5-5-5--3-3-3-3-3-3-3-3--2-|

G|-4-4-4-4-4-4-4-4--6-6-6-6-6-6-6-6--4-4-4-4-4-4-4-4--3-|(lightly distorted)

D|-4-4-4-4-4-4-4-4--7-7-7-7-7-7-7-7--5-5-5-5-5-5-5-5--4-|  

A|-2-2-2-2-2-2-2-2--7-7-7-7-7-7-7-7--5-5-5-5-5-5-5-5--4-| 

E|------------------5-5-5-5-5-5-5-5--3-3-3-3-3-3-3-3--2-|


Chorus: (2:21)


E|-------------------------------------------------|

B|-------------------------------------------------|

G|-------------------------------------------------|(from lowered whammy bar position until the whammy bar is no longer pressed)

D|-5-----------------------------------------------|  

A|-5-----------------------------------------------|

E|-3-----------------------------------------------|


Chorus: (2:22-2:45)


E|-------------------------------------------------|

B|-------------------------------------------------|

G|-------------------------------------------------| x3 (distorted)

D|-5-5-5-5-5-5-5-5\8-8-8-8-8-8-8-8/----------------|  

A|-5-5-5-5-5-5-5-5\8-8-8-8-8-8-8-8/----------------| 

E|-3-3-3-3-3-3-3-3\6-6-6-6-6-6-6-6/----------------|



Chorus: (2:45-2:53)


E|-------------------------------------------------|

B|-------------------------------------------------|

G|-------------------------------------------------|(distorted)

D|-5-5-5-5-5-5-5-5/4-4-4-4-4-4-4-4-----------------|  

A|-5-5-5-5-5-5-5-5/4-4-4-4-4-4-4-4-----------------| 

E|-3-3-3-3-3-3-3-3/2-2-2-2-2-2-2-2-----------------|


Verse Three: (2:53-3:09)


E|-2-2-2-2-2-2-2-2--2-2-2-2-2-2-2-2----------------|

B|-3-3-3-3-3-3-3-3--2-2-2-2-2-2-2-2----------------|

G|-4-4-4-4-4-4-4-4--3-3-3-3-3-3-3-3----------------| x2 (lightly distorted)

D|-4-4-4-4-4-4-4-4--4-4-4-4-4-4-4-4----------------|  

A|-2-2-2-2-2-2-2-2--4-4-4-4-4-4-4-4----------------| 

E|------------------2-2-2-2-2-2-2-2----------------|



Verse Three: (3:09-3:21) 


E|-2-2-2-2-2-2-2-2--5-5-5-5-5-5-5-5--3-3-3-3-3-3-3-3--2-|

B|-3-3-3-3-3-3-3-3--5-5-5-5-5-5-5-5--3-3-3-3-3-3-3-3--2-|

G|-4-4-4-4-4-4-4-4--6-6-6-6-6-6-6-6--4-4-4-4-4-4-4-4--3-|(lightly distorted and let final note ring)

D|-4-4-4-4-4-4-4-4--7-7-7-7-7-7-7-7--5-5-5-5-5-5-5-5--4-|  

A|-2-2-2-2-2-2-2-2--7-7-7-7-7-7-7-7--5-5-5-5-5-5-5-5--4-| 

E|------------------5-5-5-5-5-5-5-5--3-3-3-3-3-3-3-3--2-|







Track Ten - The Nobodies

Tuning: E, A, D, G, B, E



Key:


\ - Slide Up


/ - Slide down


<> - Harmonic


 

Verse One: (0:32-0:44)


E|----------------------------------------|

B|----------------------------------------|

G|---------5------------------------------| (with auto-wah effect)

D|-7----------------------5-------7-------|

A|----------------7-----------------------|  

E|----------------------------------------|


Chorus: (0:45-1:10)


E|-----------------------------------------------------------------|

B|-----------------------------------------------------------------|

G|-----------------5-5-5-5-5-5-5-5---------------------------------|x2 (distorted)

D|-7-7-7-7-7-7-7-7-5-5-5-5-5-5-5-5-2-2-2-2-2-2-2-2-7-7-7-7/5-5-5-5-|

A|-7-7-7-7-7-7-7-7-3-3-3-3-3-3-3-3-2-2-2-2-2-2-2-2-7-7-7-7/5-5-5-5-|  

E|-5-5-5-5-5-5-5-5-----------------0-0-0-0-0-0-0-0-5-5-5-5/3-3-3-3-|


Chorus: (0:58-1:10)


E|--------------------------------------------------------------------------------------|

B|-13-----13-----13-----13-----13-----13-----13-----12-----12--------13----------15-----|

G|----14-----14-----14-----14-----14-----14-----13-----13------14-14----14-12-12----12--| (distorted) 

D|--------------------------------------------------------------------------------------|

A|--------------------------------------------------------------------------------------| 

E|--------------------------------------------------------------------------------------|


 

Verse Two: (1:26-1:38)


E|----------------------------------------|

B|----------------------------------------|

G|---------5---------------5--------------| (with auto-wah effect)

D|-7------------------------------7-------|

A|----------------7-----------------------|  

E|----------------------------------------|


Chorus: (1:38-2:05)


E|-----------------------------------------------------------------|

B|-----------------------------------------------------------------|

G|-----------------5-5-5-5-5-5-5-5---------------------------------|x2 (distorted)

D|-7-7-7-7-7-7-7-7-5-5-5-5-5-5-5-5-2-2-2-2-2-2-2-2-7-7-7-7/5-5-5-5-|

A|-7-7-7-7-7-7-7-7-3-3-3-3-3-3-3-3-2-2-2-2-2-2-2-2-7-7-7-7/5-5-5-5-|  

E|-5-5-5-5-5-5-5-5-----------------0-0-0-0-0-0-0-0-5-5-5-5/3-3-3-3-|


Chorus (1:38-2:05)


E|--------------------------------------------------------------------------------------------------|

B|----13-12-13----13-12-13----13-12-13----13-12-13----12-13-12----12-13-------13-12-13----12-13-----|

G|-14----------14----------14----------14----------13----------13-------13-14----------12-------12--|x2 (distorted)

D|--------------------------------------------------------------------------------------------------|

A|--------------------------------------------------------------------------------------------------|

E|--------------------------------------------------------------------------------------------------|


Bridge: (2:05-2:24)


E|-----------------------------------------------------------------|

B|-----------------------------------------------------------------|

G|-----------------------------------------------------------------|x3 (distorted)

D|-7-7-7-7-7-7-7-7/3-3-3-3-3-3-3-3---------------------------------|

A|-7-7-7-7-7-7-7-7/3-3-3-3-3-3-3-3---------------------------------|  

E|-5-5-5-5-5-5-5-5/1-1-1-1-1-1-1-1---------------------------------|


Bridge: (2:24-2:36)


E|-----------------------------------------------------------------|

B|-----------------------------------------------------------------|

G|-----------------------------------------------------------------|(distorted - let final chord ring)

D|-7-7-7-7-7-7-7-7/3-3-3-3-3-3-3-3--2------------------------------|

A|-7-7-7-7-7-7-7-7/3-3-3-3-3-3-3-3--2------------------------------|  

E|-5-5-5-5-5-5-5-5/1-1-1-1-1-1-1-1--0------------------------------|


Bridge (2:37-3:02)


E|-----------------------------------------------------------------|

B|---1---1---1---1---1---1---1---1---1-------1-------1---1---1---1-|

G|-----2-------2-------2-------2-------1-------1-------2-------2---|x2 (clean and chorus)

D|---------------------------------------2-2-----2-----------------|

A|-0-------0-------3-------3-----------------------0---------------| 

E|---------------------------------0-----------------------3-------|


Bridge: (3:02-3:08)


E|---------------------------------|

B|---1---1---1---1---1---1---1---1-|

G|-----2-------2-------2-------2---| (clean and chorus)

D|---------------------------------|

A|-0-------0-------3-------3-------| 

E|---------------------------------|



Bridge: (3:07-3:08)


E|---------------------------------|

B|-<1>-----------------------------|

G|---------------------------------| (distorted pinch harmonics)

D|---<2>---------------------------|

A|---------------------------------| 

E|---------------------------------|


Bridge: (3:09-3:15)


E|---------------------------------|

B|---------------------------------|

G|---------------------------------| (distorted)

D|-2-2-2-2-2-2-2-2-7-7-7-7/5-5-5-5-|

A|-2-2-2-2-2-2-2-2-7-7-7-7/5-5-5-5-|  

E|-0-0-0-0-0-0-0-0-5-5-5-5/3-3-3-3-|


 


Bridge: (3:09-3:15)


E|--------------------------------------------------|

B|----12-13-12----12-13-------13-12-13----12-13-----|

G|13-----------13-------13-14----------12-------12--|x2 (distorted)

D|--------------------------------------------------|

A|--------------------------------------------------|

E|--------------------------------------------------|


Chorus: (3:15-3:28)


E|-----------------------------------------------------------------|

B|-----------------------------------------------------------------|

G|-----------------5-5-5-5-5-5-5-5---------------------------------| (distorted)

D|-7-7-7-7-7-7-7-7-5-5-5-5-5-5-5-5-2-2-2-2-2-2-2-2-7-7-7-7/5-5-5-5-|

A|-7-7-7-7-7-7-7-7-3-3-3-3-3-3-3-3-2-2-2-2-2-2-2-2-7-7-7-7/5-5-5-5-|  

E|-5-5-5-5-5-5-5-5-----------------0-0-0-0-0-0-0-0-5-5-5-5/3-3-3-3-|


Chorus (3:15-3:28)


E|--------------------------------------------------------------------------------------------------|

B|----13-12-13----13-12-13----13-12-13----13-12-13----12-13-12----12-13-------13-12-13----12-13-----|

G|-14----------14----------14----------14----------13----------13-------13-14----------12-------12--| (distorted)

D|--------------------------------------------------------------------------------------------------|

A|--------------------------------------------------------------------------------------------------|

E|--------------------------------------------------------------------------------------------------|


Outro (3:28-3:35)


E|--------------------------------|

B|-12-----------------------------|

G|-x------------------------------| (distorted with wah wah - use whammy bar)

D|-9------------------------------|

A|--------------------------------| 

E|--------------------------------|



 




Track Eleven - The Death Song

Tuning: E, A, D, G, B, E


Key:


p - pull off


/ - Slide up


\ - Slide down


^ - Bend

 


Intro: (0:00-0:04)


E|---------------------------------12---------|

B|---12-11----11-12-12----12-11-------12-11---|

G|-9--------9----------9---------9------------| (heavily distorted with a weird effect)

D|--------------------------------------------| 

A|--------------------------------------------| 

E|--------------------------------------------|


 


Intro: (0:04-0:09)


E|------------12---------12------------12--------|

B|---12-11-------12-11-----11----12p11----12-11--|

G|-9--------9----------9------9------------------| (heavily distorted with a weird effect)

D|-----------------------------------------------| 

A|-----------------------------------------------| 

E|-----------------------------------------------|


Chorus: (0:35-0:43)


E|--------------------------------------------|

B|--------------------------------------------|

G|-9-9-9-9-9-9-9-9-7-7-7-7-7-7-7-7------------|x2 (distorted)

D|-9-9-9-9-9-9-9-9-7-7-7-7-7-7-7-7------------| 

A|-7-7-7-7-7-7-7-7-5-5-5-5-5-5-5-5------------| 

E|--------------------------------------------|


Chorus (0:43-0:47)


E|--------------------------------------------|

B|--------------------------------------------|

G|-5-5-5-5-5-5-5-5-7-7-7-7-7-7-7-7------------|(distorted)

D|-5-5-5-5-5-5-5-5-7-7-7-7-7-7-7-7------------|

A|-3-3-3-3-3-3-3-3-5-5-5-5-5-5-5-5------------|

E|--------------------------------------------|


 


Chorus (0:47-0:54)


E|--------------------------------------------|

B|--------------------------------------------|

G|-5-5-5-5-5-5-5-5-7-7-7-7-7-7-7-7/9----------|(distorted and let final chord ring)

D|-5-5-5-5-5-5-5-5-7-7-7-7-7-7-7-7/9----------|

A|-3-3-3-3-3-3-3-3-5-5-5-5-5-5-5-5/7----------|

E|--------------------------------------------|


Verse Two: (0:57-1:22)


E|--------------------------------------------|

B|----17--------------------------------------|

G|--------------------------------------------|

D|-14----16\15--------------------------------|repeat until chorus (clean with chorus)

A|--------------------------------------------|

E|--------------------------------------------|


 


Chorus: (1:23-1:31)


E|--------------------------------------------|

B|--------------------------------------------|

G|-9-9-9-9-9-9-9-9-7-7-7-7-7-7-7-7------------|x2 (distorted)

D|-9-9-9-9-9-9-9-9-7-7-7-7-7-7-7-7------------| 

A|-7-7-7-7-7-7-7-7-5-5-5-5-5-5-5-5------------| 

E|--------------------------------------------|


Chorus (1:31-1:36)


E|--------------------------------------------|

B|--------------------------------------------|

G|-5-5-5-5-5-5-5-5-7-7-7-7-7-7-7-7------------|(distorted)

D|-5-5-5-5-5-5-5-5-7-7-7-7-7-7-7-7------------|

A|-3-3-3-3-3-3-3-3-5-5-5-5-5-5-5-5------------|

E|--------------------------------------------|



Chorus: (1:36-1:44)


E|---------------------------------------------------------------------|

B|---------------------------------------------------------------------|

G|-5-5-5-5-5-5-5-5-7-7-7-7-7-7-7-7-------------------------------------|(distorted)

D|-5-5-5-5-5-5-5-5-7-7-7-7-7-7-7-7-5-5-5-5-5-5-5-5-4-4-4-4-4-4-4-4-----|

A|-3-3-3-3-3-3-3-3-5-5-5-5-5-5-5-5-5-5-5-5-5-5-5-5-4-4-4-4-4-4-4-4-----|

E|---------------------------------3-3-3-3-3-3-3-3-2-2-2-2-2-2-2-2-----|


Bridge: (1:45-1:53)


E|----------------------------------------------------------------|

B|----------------------------------------------------------------|

G|-7/9-9-9\--------7/9-9-9\---------------------------------------|(distorted)

D|-7/9-9-9\--------7/9-9-9\-------5-5-5-5-5-5-5-5-4-4-4-4-4-4-4-4-|

A|-5/7-7-7\--------5/7-7-7\-------5-5-5-5-5-5-5-5-4-4-4-4-4-4-4-4-|

E|----------0-0-0-----------0-0-0-3-3-3-3-3-3-3-3-2-2-2-2-2-2-2-2-|


Bridge: (1:45-1:48)


E|--------------------------------|

B|--------------------------------|

G|-7h9-9-9\-----------------------|x2 (distorted)

D|--------------------------------|

A|--------------------------------|

E|--------------------------------|


 


Bridge: (1:53-1:58)


E|--------------------------------|

B|--------------------------------|

G|-7/9-9-9\--------7/9-9-9\-------| (distorted)

D|-7/9-9-9\--------7/9-9-9\-------|

A|-5/7-7-7\--------5/7-7-7\-------|

E|----------0-0-0-----------0-0-0-|


Bridge: (1:53-1:58)


E|--------------------------------|

B|--------------------------------|

G|-7h9-9-9\-----------------------|x2 (distorted)

D|--------------------------------|

A|--------------------------------|

E|--------------------------------|


Bridge: (1:58-2:24)


E|---------------------------------12---------|

B|---12-11----11-12-12----12-11-------12-11---|

G|-9--------9----------9---------9------------|x6 (heavily distorted with a weird effect)

D|--------------------------------------------| 

A|--------------------------------------------| 

E|--------------------------------------------|


Chorus: (2:24-2:32)


E|--------------------------------------------|

B|--------------------------------------------|

G|-9-9-9-9-9-9-9-9-7-7-7-7-7-7-7-7------------|x2 (distorted)

D|-9-9-9-9-9-9-9-9-7-7-7-7-7-7-7-7------------| 

A|-7-7-7-7-7-7-7-7-5-5-5-5-5-5-5-5------------| 

E|--------------------------------------------|


Chorus (2:32-2:37)


E|--------------------------------------------|

B|--------------------------------------------|

G|-5-5-5-5-5-5-5-5-7-7-7-7-7-7-7-7------------|(distorted)

D|-5-5-5-5-5-5-5-5-7-7-7-7-7-7-7-7------------|

A|-3-3-3-3-3-3-3-3-5-5-5-5-5-5-5-5------------|

E|--------------------------------------------|


Chorus: (2:37-2:46)


E|---------------------------------------------------------------------|

B|---------------------------------------------------------------------|

G|-5-5-5-5-5-5-5-5-7-7-7-7-7-7-7-7-------------------------------------|(distorted)

D|-5-5-5-5-5-5-5-5-7-7-7-7-7-7-7-7-5-5-5-5-5-5-5-5-4-4-4-4-4-4-4-4-----|

A|-3-3-3-3-3-3-3-3-5-5-5-5-5-5-5-5-5-5-5-5-5-5-5-5-4-4-4-4-4-4-4-4-----|

E|---------------------------------3-3-3-3-3-3-3-3-2-2-2-2-2-2-2-2-----|


Bridge and Outro: (2:46-3:20)


E|-15^(bend and release)-12-------------------|

B|--------------------------------------------|

G|--------------------------------------------| (repeat until 3:20 - distorted)

D|--------------------------------------------| 

A|--------------------------------------------|

E|--------------------------------------------|


 

Bridge and Outro: (2:46-2:54)


E|--------------------------------------------|

B|--------------------------------------------|

G|-9-9-9-9-9-9-9-9-7-7-7-7-7-7-7-7------------|x2 (distorted)

D|-9-9-9-9-9-9-9-9-7-7-7-7-7-7-7-7------------| 

A|-7-7-7-7-7-7-7-7-5-5-5-5-5-5-5-5------------| 

E|--------------------------------------------|



Bridge and Outro: (2:54-3:03)


E|--------------------------------------------|

B|--------------------------------------------|

G|-5-5-5-5-5-5-5-5-7-7-7-7-7-7-7-7------------|x2 (distorted)

D|-5-5-5-5-5-5-5-5-7-7-7-7-7-7-7-7------------|

A|-3-3-3-3-3-3-3-3-5-5-5-5-5-5-5-5------------|

E|--------------------------------------------|


Bridge and Outro: (3:03-3:12)


E|--------------------------------------------|

B|--------------------------------------------|

G|-9-9-9-9-9-9-9-9-7-7-7-7-7-7-7-7------------|x2 (distorted)

D|-9-9-9-9-9-9-9-9-7-7-7-7-7-7-7-7------------| 

A|-7-7-7-7-7-7-7-7-5-5-5-5-5-5-5-5------------| 

E|--------------------------------------------|


Bridge and Outro: (3:12-3:20)


E|--------------------------------------------|

B|--------------------------------------------|

G|-5-5-5-5-5-5-5-5-7-7-7-7-7-7-7-7------------|x2 (distorted)

D|-5-5-5-5-5-5-5-5-7-7-7-7-7-7-7-7------------|

A|-3-3-3-3-3-3-3-3-5-5-5-5-5-5-5-5------------|

E|--------------------------------------------|


Outro: (3:21)


E|--------------------------------------------|

B|--------------------------------------------|

G|--------------------------------------------|

D|-2------------------------------------------| (distorted and let ring)

A|-2------------------------------------------|

E|-0------------------------------------------|








Track Twelve - Lamb of God

Tuning: E, A, D, G, B, E


Key:


~ - Vibrato


^ - Bend


 


Intro: (0:00-0:11)


E|--------------------------------------------|

B|-5--3--1--0---------------------------------|

G|-5--4--2--0---------------------------------|x2 (clean and chorus)

D|--------------------------------------------| 

A|--------------------------------------------| 

E|--------------------------------------------|


Verse One: (0:11-0:36)


E|-----0-------0-0--------------------------------|

B|-----1-------0-0--------------------------------|

G|-----2-------4-2--------------------------------|x4 (acoustic guitar)

D|---2-2-------5-3--------------------------------| 

A|-0---0----5--5-3--------------------------------| 

E|--------3---------------------------------------|


Verse Two: (0:36-0:59)


E|-0-0-0-0-0-0-0-0--0-0-0-0--0-0-0-0-------|

B|-1-1-1-1-1-1-1-1--0-0-0-0--0-0-0-0-------|

G|-2-2-2-2-2-2-2-2--4-4-4-4--2-2-2-2-------|x4 (acoustic guitar)

D|-2-2-2-2-2-2-2-2--5-5-5-5--3-3-3-3-------| 

A|-0-0-0-0-0-0-0-0--5-5-5-5--3-3-3-3-------| 

E|-----------------------------------------|


Verse Two: (0:36-0:59)


E|--------------------------------------------|

B|-13----13----13----13---12----12------------|

G|----14----14----14---14----14----14~--------|x4 (distorted and let final note ring)

D|--------------------------------------------|

A|--------------------------------------------|

E|--------------------------------------------|


Bridge: (1:00-1:11)


E|--------------------------------------------|

B|-5--3--1--0---------------------------------|

G|-5--4--2--0---------------------------------|x2 (clean and chorus)

D|--------------------------------------------| 

A|--------------------------------------------| 

E|--------------------------------------------|


Bridge: (1:11-1:16)


E|-----0-------0-0--------------------------------|

B|-----1-------0-0--------------------------------|

G|-----2-------4-2--------------------------------|(acoustic guitar)

D|---2-2-------5-3--------------------------------| 

A|-0---0----5--5-3--------------------------------| 

E|--------3---------------------------------------|


Verse Three: (1:17-1:41)


E|-----0-------0-0--------------------------------|

B|-----1-------0-0--------------------------------|

G|-----2-------4-2--------------------------------|x4 (acoustic guitar)

D|---2-2-------5-3--------------------------------| 

A|-0---0----5--5-3--------------------------------| 

E|--------3---------------------------------------|


Verse Three: (1:41-2:05)


E|-0-0-0-0-0-0-0-0--0-0-0-0--0-0-0-0-------|

B|-1-1-1-1-1-1-1-1--0-0-0-0--0-0-0-0-------|

G|-2-2-2-2-2-2-2-2--4-4-4-4--2-2-2-2-------|x4 (acoustic guitar)

D|-2-2-2-2-2-2-2-2--5-5-5-5--3-3-3-3-------| 

A|-0-0-0-0-0-0-0-0--5-5-5-5--3-3-3-3-------| 

E|-----------------------------------------|


Verse Two: (1:41:2:05)


E|--------------------------------------------|

B|-13----13----13----13---12----12------------|

G|----14----14----14---14----14----14~--------|x4 (distorted and let final note ring)

D|--------------------------------------------|

A|--------------------------------------------|

E|--------------------------------------------|


Chorus: (2:05-2:17)


E|-0-0-0-0-0-0-0-0--0-0-0-0-0-0-0-0--1-1-1-1-1-1-1-1-1-1-1-1-1-1-1-1----|

B|-1-1-1-1-1-1-1-1--0-0-0-0-0-0-0-0--1-1-1-1-1-1-1-1-1-1-1-1-1-1-1-1----|

G|-0-0-0-0-0-0-0-0--4-4-4-4-4-4-4-4--2-2-2-2-2-2-2-2-2-2-2-2-2-2-2-2----| (acoustic guitar)

D|-2-2-2-2-2-2-2-2--5-5-5-5-5-5-5-5--3-3-3-3-3-3-3-3-3-3-3-3-3-3-3-3----| 

A|-3-3-3-3-3-3-3-3--5-5-5-5-5-5-5-5--3-3-3-3-3-3-3-3-3-3-3-3-3-3-3-3----| 

E|-----------------------------------1-1-1-1-1-1-1-1-1-1-1-1-1-1-1-1----|


Chorus: (2:05-2:17)


E|--------------------------------------------------------------------|

B|--------------------------------------------------------------------|

G|-5-5-5-5-5-5-5-5----------------------------------------------------|

D|-5-5-5-5-5-5-5-5--5-5-5-5-5-5-5-5--3-3-3-3-3-3-3-3-3-3-3-3-3-3-3-3--| (distorted) 

A|-3-3-3-3-3-3-3-3--5-5-5-5-5-5-5-5--3-3-3-3-3-3-3-3-3-3-3-3-3-3-3-3--| 

E|------------------3-3-3-3-3-3-3-3--1-1-1-1-1-1-1-1-1-1-1-1-1-1-1-1--|


 

Chorus: (2:17-2:29)


E|-0-0-0-0-0-0-0-0--0-0-0-0-0-0-0-0--1-1-1-1-1-1-1-1-1-1-1-1-1-1-1-1----|

B|-1-1-1-1-1-1-1-1--0-0-0-0-0-0-0-0--1-1-1-1-1-1-1-1-1-1-1-1-1-1-1-1----|

G|-2-2-2-2-2-2-2-2--4-4-4-4-4-4-4-4--2-2-2-2-2-2-2-2-2-2-2-2-2-2-2-2----| (acoustic guitar)

D|-2-2-2-2-2-2-2-2--5-5-5-5-5-5-5-5--3-3-3-3-3-3-3-3-3-3-3-3-3-3-3-3----| 

A|-0-0-0-0-0-0-0-0--5-5-5-5-5-5-5-5--3-3-3-3-3-3-3-3-3-3-3-3-3-3-3-3----| 

E|-----------------------------------1-1-1-1-1-1-1-1-1-1-1-1-1-1-1-1----|



Chorus: (2:17-2:29)


E|--------------------------------------------------------------------|

B|--------------------------------------------------------------------|

G|-2-2-2-2-2-2-2-2----------------------------------------------------|

D|-2-2-2-2-2-2-2-2--5-5-5-5-5-5-5-5--3-3-3-3-3-3-3-3-3-3-3-3-3-3-3-3--|(distorted)  

A|-0-0-0-0-0-0-0-0--5-5-5-5-5-5-5-5--3-3-3-3-3-3-3-3-3-3-3-3-3-3-3-3--| 

E|------------------3-3-3-3-3-3-3-3--1-1-1-1-1-1-1-1-1-1-1-1-1-1-1-1--|


Bridge: (2:29-3:05)


E|--------------------------------------------|

B|----------3--3---3-5------------3-----------|

G|-2--2-4-5------5-----2-2--2-4-5----5-4------|x3  (clean with chorus and tremelo)

D|--------------------------------------------| 

A|--------------------------------------------| 

E|--------------------------------------------|


Bridge: (2:53-3:05)


E|--------------------------------------------|

B|----------3--3---3-5------------3-----------|

G|-2--2-4-5------5-----2-2--2-4-5----5-4------| (distorted with chorus)

D|--------------------------------------------| 

A|--------------------------------------------| 

E|--------------------------------------------|


Chorus: (3:05-3:17)


E|-0-0-0-0-0-0-0-0--0-0-0-0-0-0-0-0--1-1-1-1-1-1-1-1-1-1-1-1-1-1-1-1----|

B|-1-1-1-1-1-1-1-1--0-0-0-0-0-0-0-0--1-1-1-1-1-1-1-1-1-1-1-1-1-1-1-1----|

G|-0-0-0-0-0-0-0-0--4-4-4-4-4-4-4-4--2-2-2-2-2-2-2-2-2-2-2-2-2-2-2-2----| (acoustic guitar)

D|-2-2-2-2-2-2-2-2--5-5-5-5-5-5-5-5--3-3-3-3-3-3-3-3-3-3-3-3-3-3-3-3----| 

A|-3-3-3-3-3-3-3-3--5-5-5-5-5-5-5-5--3-3-3-3-3-3-3-3-3-3-3-3-3-3-3-3----| 

E|-----------------------------------1-1-1-1-1-1-1-1-1-1-1-1-1-1-1-1----|


Chorus: (3:05-3:17)


E|--------------------------------------------------------------------|

B|--------------------------------------------------------------------|

G|-5-5-5-5-5-5-5-5----------------------------------------------------|

D|-5-5-5-5-5-5-5-5--5-5-5-5-5-5-5-5--3-3-3-3-3-3-3-3-3-3-3-3-3-3-3-3--| (distorted) 

A|-3-3-3-3-3-3-3-3--5-5-5-5-5-5-5-5--3-3-3-3-3-3-3-3-3-3-3-3-3-3-3-3--| 

E|------------------3-3-3-3-3-3-3-3--1-1-1-1-1-1-1-1-1-1-1-1-1-1-1-1--|


 

Chorus: (3:15-3:38)


E|-8--7-5-3-5---7--5--3--5--3--5-----7--5--3--5--3--5-|

B|----------------------------------------------------|

G|----------------------------------------------------|

D|----------------------------------------------------| 

A|----------------------------------------------------| 

E|----------------------------------------------------|


Chorus: (3:17-3:29)


E|-0-0-0-0-0-0-0-0--0-0-0-0-0-0-0-0--1-1-1-1-1-1-1-1-1-1-1-1-1-1-1-1----|

B|-1-1-1-1-1-1-1-1--0-0-0-0-0-0-0-0--1-1-1-1-1-1-1-1-1-1-1-1-1-1-1-1----|

G|-2-2-2-2-2-2-2-2--4-4-4-4-4-4-4-4--2-2-2-2-2-2-2-2-2-2-2-2-2-2-2-2----| (acoustic guitar)

D|-2-2-2-2-2-2-2-2--5-5-5-5-5-5-5-5--3-3-3-3-3-3-3-3-3-3-3-3-3-3-3-3----| 

A|-0-0-0-0-0-0-0-0--5-5-5-5-5-5-5-5--3-3-3-3-3-3-3-3-3-3-3-3-3-3-3-3----| 

E|-----------------------------------1-1-1-1-1-1-1-1-1-1-1-1-1-1-1-1----|


 

Chorus: (3:17-3:29)


E|--------------------------------------------------------------------|

B|--------------------------------------------------------------------|

G|-2-2-2-2-2-2-2-2----------------------------------------------------|

D|-2-2-2-2-2-2-2-2--5-5-5-5-5-5-5-5--3-3-3-3-3-3-3-3-3-3-3-3-3-3-3-3--|(distorted)  

A|-0-0-0-0-0-0-0-0--5-5-5-5-5-5-5-5--3-3-3-3-3-3-3-3-3-3-3-3-3-3-3-3--| 

E|------------------3-3-3-3-3-3-3-3--1-1-1-1-1-1-1-1-1-1-1-1-1-1-1-1--|


Chorus: (3:29-3:41)


E|-0-0-0-0-0-0-0-0--0-0-0-0-0-0-0-0--1-1-1-1-1-1-1-1-1-1-1-1-1-1-1-1----|

B|-1-1-1-1-1-1-1-1--0-0-0-0-0-0-0-0--1-1-1-1-1-1-1-1-1-1-1-1-1-1-1-1----|

G|-0-0-0-0-0-0-0-0--4-4-4-4-4-4-4-4--2-2-2-2-2-2-2-2-2-2-2-2-2-2-2-2----| (acoustic guitar)

D|-2-2-2-2-2-2-2-2--5-5-5-5-5-5-5-5--3-3-3-3-3-3-3-3-3-3-3-3-3-3-3-3----| 

A|-3-3-3-3-3-3-3-3--5-5-5-5-5-5-5-5--3-3-3-3-3-3-3-3-3-3-3-3-3-3-3-3----| 

E|-----------------------------------1-1-1-1-1-1-1-1-1-1-1-1-1-1-1-1----|


Chorus: (3:29-3:41)


E|--------------------------------------------------------------------|

B|--------------------------------------------------------------------|

G|-5-5-5-5-5-5-5-5----------------------------------------------------|

D|-5-5-5-5-5-5-5-5--5-5-5-5-5-5-5-5--3-3-3-3-3-3-3-3-3-3-3-3-3-3-3-3--| (distorted) 

A|-3-3-3-3-3-3-3-3--5-5-5-5-5-5-5-5--3-3-3-3-3-3-3-3-3-3-3-3-3-3-3-3--| 

E|------------------3-3-3-3-3-3-3-3--1-1-1-1-1-1-1-1-1-1-1-1-1-1-1-1--|


Chorus: (3:39-3:59)


E|-8--7-5-3-5---7--5--3--5--3--5----8--7-5-3-5---3----|

B|----------------------------------------------------|

G|----------------------------------------------------|(slide down to final 3 and use whammy bar - weird effect)

D|----------------------------------------------------| 

A|----------------------------------------------------| 

E|----------------------------------------------------|


Chorus: (3:41-3:53)


E|-0-0-0-0-0-0-0-0--0-0-0-0-0-0-0-0--1-1-1-1-1-1-1-1-1-1-1-1-1-1-1-1----|

B|-1-1-1-1-1-1-1-1--0-0-0-0-0-0-0-0--1-1-1-1-1-1-1-1-1-1-1-1-1-1-1-1----|

G|-2-2-2-2-2-2-2-2--4-4-4-4-4-4-4-4--2-2-2-2-2-2-2-2-2-2-2-2-2-2-2-2----| (acoustic guitar)

D|-2-2-2-2-2-2-2-2--5-5-5-5-5-5-5-5--3-3-3-3-3-3-3-3-3-3-3-3-3-3-3-3----| 

A|-0-0-0-0-0-0-0-0--5-5-5-5-5-5-5-5--3-3-3-3-3-3-3-3-3-3-3-3-3-3-3-3----| 

E|-----------------------------------1-1-1-1-1-1-1-1-1-1-1-1-1-1-1-1----|


 

Chorus: (3:41-3:53)


E|--------------------------------------------------------------------|

B|--------------------------------------------------------------------|

G|-2-2-2-2-2-2-2-2----------------------------------------------------|

D|-2-2-2-2-2-2-2-2--5-5-5-5-5-5-5-5--3-3-3-3-3-3-3-3-3-3-3-3-3-3-3-3--|(distorted)  

A|-0-0-0-0-0-0-0-0--5-5-5-5-5-5-5-5--3-3-3-3-3-3-3-3-3-3-3-3-3-3-3-3--| 

E|------------------3-3-3-3-3-3-3-3--1-1-1-1-1-1-1-1-1-1-1-1-1-1-1-1--|


 

Outro: (3:53-4:28)


E|-----0-------0-0--------------------------------|

B|-----1-------0-0--------------------------------|

G|-----2-------4-2--------------------------------|x6 (acoustic guitar)

D|---2-2-------5-3--------------------------------| 

A|-0---0----5--5-3--------------------------------| 

E|--------3---------------------------------------|


Outro: (4:05-4:25)


E|------------------------------------------------------4^(bend and release slowly)--4^(start with note bent then release)-5-------3--|

B|------------3-----------------------------------------------------------------------------------------------------------------------|

G|-2--4--5------5--5(start with note bent then release)----------------------------------------------------------------------2---5---2|

D|------------------------------------------------------------------------------------------------------------------------------------| 

A|------------------------------------------------------------------------------------------------------------------------------------|

E|------------------------------------------------------------------------------------------------------------------------------------|



(distorted with weird backward effect)



The final section sounds like piano


 







Track Thirteen - Born Again

Tuning: E, A, D, G, B, E


Key:


^ - Bend


\ - Slid down



Intro and Verse One: (0:03-0:37)


E|----------------------------------|

B|----------------------------------|

G|----------------------------------|x10  (distorted)

D|-5^(Bend and release)-------------|

A|----------------------------------|  

E|-3^(Bend and release)-------------|



I believe that the note heard before the above chord is played on bass guitar, if you listen to a live version, Helsinki

for example, this seems to be the case also


Bridge: (0:21-0:22)


E|----------------------------------|

B|----------------------------------|

G|-9-9-9-9\-------------------------| (distorted and quiet)

D|----------------------------------|

A|----------------------------------|  

E|----------------------------------|


Bridge: (0:39-0:46)


E|-----------------------------------------------------------------------------------------|

B|-----------------------------------------------------------------------------------------|

G|-9-9-9-9-9-9-9-12-12-12-12-12-12-12-12-14-14-14-14-14-14-14-14-12-12-12-12-12-12-12-12---| (distorted)  

D|-9-9-9-9-9-9-9-12-12-12-12-12-12-12-12-14-14-14-14-14-14-14-14-12-12-12-12-12-12-12-12---|

A|-7-7-7-7-7-7-7-10-10-10-10-10-10-10-10-12-12-12-12-12-12-12-12-10-10-10-10-10-10-10-10---|  

E|-----------------------------------------------------------------------------------------|


Bridge: (0:45-0:46)


E|----------------------------------|

B|----------------------------------|

G|----------------------------------|(distorted)

D|-5^(Bend and release)-------------|

A|----------------------------------|  

E|-3^(Bend and release)-------------|


Bridge: (0:46-0:53)


E|-----------------------------------------------------------------------------------------|

B|-----------------------------------------------------------------------------------------|

G|-9-9-9-9-9-9-9-12-12-12-12-12-12-12-12-14-14-14-14-14-14-14-14-14-14-14-14-14-14-14-14---| (distorted)  

D|-9-9-9-9-9-9-9-12-12-12-12-12-12-12-12-14-14-14-14-14-14-14-14-14-14-14-14-14-14-14-14---|

A|-7-7-7-7-7-7-7-10-10-10-10-10-10-10-10-12-12-12-12-12-12-12-12-12-12-12-12-12-12-12-12---|  

E|-----------------------------------------------------------------------------------------|


Bridge: (0:53-0:57)


E|--------------------------------------------------|

B|--------------------------------------------------|

G|-12-12-12-12-12-12-12-12-11-11-11-11-11-11-11-11--| (distorted)

D|-12-12-12-12-12-12-12-12-11-11-11-11-11-11-11-11--|

A|-10-10-10-10-10-10-10-10-9--9--9--9--9--9--9--9---|  

E|--------------------------------------------------|


Chorus: (0:57-1:04)


E|--------------------------------------------------------------------------|

B|--------------------------------------------------------------------------|

G|-9-9-9-9-9-9-9-9-9-9-9-9-9-9-9-9------------------------------------------| (distorted)

D|-9-9-9-9-9-9-9-9-9-9-9-9-9-9-9-9-10-10-10-10-10-10-10-10-9-9-9-9-9-9-9-9--|

A|-7-7-7-7-7-7-7-7-7-7-7-7-7-7-7-7-10-10-10-10-10-10-10-10-9-9-9-9-9-9-9-9--|  

E|---------------------------------8--8--8--8--8--8--8--8--7-7-7-7-7-7-7-7--|


Chorus: (1:04-1:11)


E|----------------------------------------------------------------------|

B|----------------------------------------------------------------------|

G|-9-9-9-9-9-9-9-9-9-9-9-9-9-9-9-9--------------------------------------| (distorted)

D|-9-9-9-9-9-9-9-9-9-9-9-9-9-9-9-9-10-10-10-10-10-10-10-10-9-9-9-9-7--5-|

A|-7-7-7-7-7-7-7-7-7-7-7-7-7-7-7-7-10-10-10-10-10-10-10-10-9-9-9-9-7--5-|  

E|---------------------------------8--8--8--8--8--8--8--8--7-7-7-7-5--3-|


Verse Two: (1:11-1:27)


E|----------------------------------|

B|----------------------------------|

G|----------------------------------|x5 (distorted)

D|-5^(Bend and release)-------------|

A|----------------------------------|  

E|-3^(Bend and release)-------------|


Bridge: (1:28-1:35)


E|-----------------------------------------------------------------------------------------|

B|-----------------------------------------------------------------------------------------|

G|-9-9-9-9-9-9-9-12-12-12-12-12-12-12-12-14-14-14-14-14-14-14-14-12-12-12-12-12-12-12-12---| (distorted)  

D|-9-9-9-9-9-9-9-12-12-12-12-12-12-12-12-14-14-14-14-14-14-14-14-12-12-12-12-12-12-12-12---|

A|-7-7-7-7-7-7-7-10-10-10-10-10-10-10-10-12-12-12-12-12-12-12-12-10-10-10-10-10-10-10-10---|  

E|-----------------------------------------------------------------------------------------|


Bridge: (1:34-1:35)


E|----------------------------------|

B|----------------------------------|

G|----------------------------------|(distorted)

D|-5^(Bend and release)-------------|

A|----------------------------------|  

E|-3^(Bend and release)-------------|


Bridge: (1:35-1:42)


E|-----------------------------------------------------------------------------------------|

B|-----------------------------------------------------------------------------------------|

G|-9-9-9-9-9-9-9-12-12-12-12-12-12-12-12-14-14-14-14-14-14-14-14-14-14-14-14-14-14-14-14---| (distorted)  

D|-9-9-9-9-9-9-9-12-12-12-12-12-12-12-12-14-14-14-14-14-14-14-14-14-14-14-14-14-14-14-14---|

A|-7-7-7-7-7-7-7-10-10-10-10-10-10-10-10-12-12-12-12-12-12-12-12-12-12-12-12-12-12-12-12---|  

E|-----------------------------------------------------------------------------------------|


Bridge: (1:42-1:46)


E|--------------------------------------------------|

B|--------------------------------------------------|

G|-12-12-12-12-12-12-12-12-11-11-11-11-11-11-11-11--| (distorted)

D|-12-12-12-12-12-12-12-12-11-11-11-11-11-11-11-11--|

A|-10-10-10-10-10-10-10-10-9--9--9--9--9--9--9--9---|  

E|--------------------------------------------------|



Chorus: (1:46-1:53)


E|--------------------------------------------------------------------------|

B|--------------------------------------------------------------------------|

G|-9-9-9-9-9-9-9-9-9-9-9-9-9-9-9-9------------------------------------------| (distorted)

D|-9-9-9-9-9-9-9-9-9-9-9-9-9-9-9-9-10-10-10-10-10-10-10-10-9-9-9-9-9-9-9-9--|

A|-7-7-7-7-7-7-7-7-7-7-7-7-7-7-7-7-10-10-10-10-10-10-10-10-9-9-9-9-9-9-9-9--|  

E|---------------------------------8--8--8--8--8--8--8--8--7-7-7-7-7-7-7-7--|


Chorus: (1:53-2:00)


E|----------------------------------------------------------------------|

B|----------------------------------------------------------------------|

G|-9-9-9-9-9-9-9-9-9-9-9-9-9-9-9-9--------------------------------------| (distorted)

D|-9-9-9-9-9-9-9-9-9-9-9-9-9-9-9-9-10-10-10-10-10-10-10-10-9-9-9-9-7--5-|

A|-7-7-7-7-7-7-7-7-7-7-7-7-7-7-7-7-10-10-10-10-10-10-10-10-9-9-9-9-7--5-|  

E|---------------------------------8--8--8--8--8--8--8--8--7-7-7-7-5--3-|


Chorus: (2:01-2:07)


E|--------------------------------------------------------------------------|

B|--------------------------------------------------------------------------|

G|-9-9-9-9-9-9-9-9-9-9-9-9-9-9-9-9------------------------------------------| (distorted)

D|-9-9-9-9-9-9-9-9-9-9-9-9-9-9-9-9-10-10-10-10-10-10-10-10-9-9-9-9-9-9-9-9--|

A|-7-7-7-7-7-7-7-7-7-7-7-7-7-7-7-7-10-10-10-10-10-10-10-10-9-9-9-9-9-9-9-9--|  

E|---------------------------------8--8--8--8--8--8--8--8--7-7-7-7-7-7-7-7--|


Chorus: (2:08-2:15)


E|----------------------------------------------------------------------|

B|----------------------------------------------------------------------|

G|-9-9-9-9-9-9-9-9-9-9-9-9-9-9-9-9--------------------------------------| (distorted)

D|-9-9-9-9-9-9-9-9-9-9-9-9-9-9-9-9-10-10-10-10-10-10-10-10-9-9-9-9-7--5-|

A|-7-7-7-7-7-7-7-7-7-7-7-7-7-7-7-7-10-10-10-10-10-10-10-10-9-9-9-9-7--5-|  

E|---------------------------------8--8--8--8--8--8--8--8--7-7-7-7-5--3-|


Bridge: (2:15-2:29)


E|----------------------------------|

B|----------------12----------------|

G|-12---11---17---------------------|x2 (distorted and let final chord ring)

D|----------------9-----------------|

A|-10---9----15---------------------|  

E|-0--0-0--0-0--0----0--------------|


Bridge: (2:29-2:37)


E|----------------------------------|

B|----------------12----------------|

G|-12---11---17---------------------| (distorted and let final chord ring)

D|----------------9-----------------|

A|-10---9----15---------------------|  

E|-0--0-0--0-0--0-------------------|


Bridge: (2:29-2:34)


E|----------------------------------|

B|----------------------------------|

G|----------------------------------|x2 (distorted)

D|-5^(Bend and release)-------------|

A|----------------------------------|  

E|-3^(Bend and release)-------------|


Chorus: (2:37-2:44)


E|--------------------------------------------------------------------------|

B|--------------------------------------------------------------------------|

G|-9-9-9-9-9-9-9-9-9-9-9-9-9-9-9-9------------------------------------------| (distorted)

D|-9-9-9-9-9-9-9-9-9-9-9-9-9-9-9-9-10-10-10-10-10-10-10-10-9-9-9-9-9-9-9-9--|

A|-7-7-7-7-7-7-7-7-7-7-7-7-7-7-7-7-10-10-10-10-10-10-10-10-9-9-9-9-9-9-9-9--|  

E|---------------------------------8--8--8--8--8--8--8--8--7-7-7-7-7-7-7-7--|


Chorus: (2:44-2:51)


E|----------------------------------------------------------------------|

B|----------------------------------------------------------------------|

G|-9-9-9-9-9-9-9-9-9-9-9-9-9-9-9-9--------------------------------------| (distorted)

D|-9-9-9-9-9-9-9-9-9-9-9-9-9-9-9-9-10-10-10-10-10-10-10-10-9-9-9-9-7--5-|

A|-7-7-7-7-7-7-7-7-7-7-7-7-7-7-7-7-10-10-10-10-10-10-10-10-9-9-9-9-7--5-|  

E|---------------------------------8--8--8--8--8--8--8--8--7-7-7-7-5--3-|


Outro: (2:51-2:58)


E|--------------------------------------------------------------------------|

B|--------------------------------------------------------------------------|

G|-9-9-9-9-9-9-9-9-9-9-9-9-9-9-9-9------------------------------------------| (distorted)

D|-9-9-9-9-9-9-9-9-9-9-9-9-9-9-9-9-10-10-10-10-10-10-10-10-9-9-9-9-9-9-9-9--|

A|-7-7-7-7-7-7-7-7-7-7-7-7-7-7-7-7-10-10-10-10-10-10-10-10-9-9-9-9-9-9-9-9--|  

E|---------------------------------8--8--8--8--8--8--8--8--7-7-7-7-7-7-7-7--|


Outro: (2:51-3:20)


E|----------------------------------|

B|-12--5--8----12--5--10------------|

G|-14^-7^-10^--14^-7^-12^-----------|x4 (distorted)

D|----------------------------------|

A|----------------------------------|  

E|----------------------------------|


Outro: (2:58-3:06)


E|----------------------------------------------------------------------|

B|----------------------------------------------------------------------|

G|-9-9-9-9-9-9-9-9-9-9-9-9-9-9-9-9--------------------------------------| (distorted)

D|-9-9-9-9-9-9-9-9-9-9-9-9-9-9-9-9-10-10-10-10-10-10-10-10-9-9-9-9-7--5-|

A|-7-7-7-7-7-7-7-7-7-7-7-7-7-7-7-7-10-10-10-10-10-10-10-10-9-9-9-9-7--5-|  

E|---------------------------------8--8--8--8--8--8--8--8--7-7-7-7-5--3-|


Outro: (3:06-3:13)


E|--------------------------------------------------------------------------|

B|--------------------------------------------------------------------------|

G|-9-9-9-9-9-9-9-9-9-9-9-9-9-9-9-9------------------------------------------| (distorted)

D|-9-9-9-9-9-9-9-9-9-9-9-9-9-9-9-9-10-10-10-10-10-10-10-10-9-9-9-9-9-9-9-9--|

A|-7-7-7-7-7-7-7-7-7-7-7-7-7-7-7-7-10-10-10-10-10-10-10-10-9-9-9-9-9-9-9-9--|  

E|---------------------------------8--8--8--8--8--8--8--8--7-7-7-7-7-7-7-7--|


Outro: (3:13-3:20)


E|----------------------------------------------------------------------|

B|----------------------------------------------------------------------|

G|-9-9-9-9-9-9-9-9-9-9-9-9-9-9-9-9--------------------------------------| (distorted)

D|-9-9-9-9-9-9-9-9-9-9-9-9-9-9-9-9-10-10-10-10-10-10-10-10-9-9-9-9-7--5-|

A|-7-7-7-7-7-7-7-7-7-7-7-7-7-7-7-7-10-10-10-10-10-10-10-10-9-9-9-9-7--5-|  

E|---------------------------------8--8--8--8--8--8--8--8--7-7-7-7-5--3-|









Track Fourteen - Burning Flag


Tuning: D, A, D, G, B, E




Key:

 

x - Deaden Strings

\ - Slide Down




Intro (0:02-0:29)



E|------------------------------------|

B|------------------------------------|

G|------------------------------------|x8

D|-0-6-0------------------------------| 

A|-0-6-0------------------------------| 

D|-0-6-0------------------------------|




Intro  (0:15-0:29)



E|------------------------------------|

B|------------------------------------|

G|-x-x-x-x----------------------------|repeat many times

D|-x-x-x-x----------------------------| 

A|-x-x-x-x----------------------------| 

D|-x-x-x-x----------------------------|





Intro (0:29-0:43)



E|--------------------------------------------------------|

B|--------------------------------------------------------|

G|-----x-x-x------x-x-x------x-x-x-x-x--------------------|x4

D|-3-0-x-x-x--3-0-x-x-x--3-0-x-x-x-x-x-0-6-0--------------| 

A|-3-0-x-x-x--3-0-x-x-x--3-0-x-x-x-x-x-0-6-0--------------| 

D|-3-0-x-x-x--3-0-x-x-x--3-0-x-x-x-x-x-0-6-0--------------|





Verse One (0:51-0:59)


E|------------------------------------|

B|------------------------------------|

G|------------------------------------|x3

D|-0-6-0------------------------------| 

A|-0-6-0------------------------------| 

D|-0-6-0------------------------------|





Bridge (0:59-1:06)


E|----------------------------------------------|

B|----------------------------------------------|

G|--------x-x-x-x-x-x---------------------------|x4

D|-6-6-6\-x-x-x-x-x-x---------------------------| 

A|-6-6-6\-x-x-x-x-x-x---------------------------| 

D|-6-6-6\-x-x-x-x-x-x---------------------------|




Chorus (1:06-1:21)


E|---------------------------------------------------|

B|---------------------------------------------------|

G|-7-7-7-5-8--7-7-7-5-8--7-7-7-5-8--7-7-7------------|x2

D|-7-7-7-5-8--7-7-7-5-8--7-7-7-5-8--7-7-7-3-3-3------| 

A|-5-5-5-3-6--5-5-5-3-6--5-5-5-3-6--5-5-5-3-3-3------| 

D|----------------------------------------3-3-3------|




Bridge (1:21-1:36)


E|------------------------------------|

B|------------------------------------|

G|-----5------------------------------|x2 (Played with a strange effect that I can't quite make out)

D|-4---5---4----1---------------------| 

A|-4---3---4----1---------------------| 

D|-4-------4----1---------------------|




Verse Two (1:42-1:51)


E|------------------------------------|

B|------------------------------------|

G|------------------------------------|x3 (different distortion effect on the final 3 chords)

D|-0-6-0------------------------------| 

A|-0-6-0------------------------------| 

D|-0-6-0------------------------------|





Bridge (1:51-1:58)


E|--------------------------------------------------------|

B|--------------------------------------------------------|

G|-----x-x-x------x-x-x------x-x-x-x-x--------------------|x2

D|-3-0-x-x-x--3-0-x-x-x--3-0-x-x-x-x-x-0-6-0--------------| 

A|-3-0-x-x-x--3-0-x-x-x--3-0-x-x-x-x-x-0-6-0--------------| 

D|-3-0-x-x-x--3-0-x-x-x--3-0-x-x-x-x-x-0-6-0--------------|




Bridge (1:58-2:05)


E|----------------------------------------------|

B|----------------------------------------------|

G|--------x-x-x-x-x-x---------------------------|x4

D|-6-6-6\-x-x-x-x-x-x---------------------------| 

A|-6-6-6\-x-x-x-x-x-x---------------------------| 

D|-6-6-6\-x-x-x-x-x-x---------------------------|





Bridge (1:56-1:58)


E|-13---12-12-12-12-12-12-12-12-12-12---------------|

B|--------------------------------------------------|

G|--------------------------------------------------|(Buried deep in the mix - 12 on the E picked very fast)

D|--------------------------------------------------| 

A|--------------------------------------------------| 

D|--------------------------------------------------|




Chorus (2:05-2:20)


E|---------------------------------------------------|

B|---------------------------------------------------|

G|-7-7-7-5-8--7-7-7-5-8--7-7-7-5-8--7-7-7------------|x2

D|-7-7-7-5-8--7-7-7-5-8--7-7-7-5-8--7-7-7-3-3-3------| 

A|-5-5-5-3-6--5-5-5-3-6--5-5-5-3-6--5-5-5-3-3-3------| 

D|----------------------------------------3-3-3------|





Bridge (2:20-2:34)


E|------------------------------------|

B|------------------------------------|

G|-----5------------------------------|x2 (Played with a strange effect that I can't quite make out)

D|-4---5---4----1---------------------| 

A|-4---3---4----1---------------------| 

D|-4-------4----1---------------------|





Bridge (2:34-2:49)


E|------------------------------------|

B|------------------------------------|

G|------------------------------------|x4  (weird distortion effect - pull off from 6 to 0 very quickly to note barely registers)

D|-6p0-0-0---6p0-0-6------------------|    (there is another guitar track playing simultaneously to this but it is too broken up to hear properly)

A|-6p0-0-0---6p0-0-6------------------| 

D|-6p0-0-0---6p0-0-6------------------|





Chorus and outro (2:49-3:20)


E|---------------------------------------------------|

B|---------------------------------------------------|

G|-7-7-7-5-8--7-7-7-5-8--7-7-7-5-8--7-7-7------------|x4

D|-7-7-7-5-8--7-7-7-5-8--7-7-7-5-8--7-7-7-3-3-3------| 

A|-5-5-5-3-6--5-5-5-3-6--5-5-5-3-6--5-5-5-3-3-3------| 

D|----------------------------------------3-3-3------|








Track Fifteen - Coma Black


Tuning - E,A,D,G,B,E



Key:

~ - Sustain note

h - Hammer onto note

^ - Bend note



A) Eden Eye



Intro and Verse One (Starts at 0:09)


E|-3-----3-----3-------------|

B|---5-----5-----5-----------|

G|-----4-----4---------------|x3

D|---------------------------|

A|---------------------------| 

E|---------------------------|




Intro and Verse One (Starts at 0:19)

E|-3-----3-----5-------------|

B|---5-----5-----5-----------|

G|-----4-----4---------------|

D|---------------------------|

A|---------------------------| 

E|---------------------------|



Repeat the above in sequence until 1:01




Verse One (0:22-1:01)


E|----------------------------------------------------------------------------|

B|----------------------------------------------------------------------------|

G|----------------------------------------------------------------------------|x3 (Lightly distorted and strummed softly)

D|-9-9-9-9-9-9-9-9-12-12-12-12-12-12-12-12-7-7-7-7-7-7-7-7-5-5-5-5-5-5-5-5----|

A|-7-7-7-7-7-7-7-7-10-10-10-10-10-10-10-10-5-5-5-5-5-5-5-5-3-3-3-3-3-3-3-3----| 

E|----------------------------------------------------------------------------|





Bridge (1:01-1:26)


E|----------------------------------------|

B|-----0----------0-----------------------|

G|-------5------5-------0-------0---0-----|x4

D|---2--------2-------2-------------------|

A|-0--------0-------0-----3-0h3---2-------| 

E|----------------------------------------|





Bridge (1:21-1:26)


E|--------------------------------------------|

B|--------------------------------------------|

G|-7-7-7-7-7-7-7-7-5-5-5-5-5-5-5-5------------| (Palm muted, low in the mix)

D|-7-7-7-7-7-7-7-7-5-5-5-5-5-5-5-5------------|

A|-5-5-5-5-5-5-5-5-3-3-3-3-3-3-3-3------------| 

E|--------------------------------------------|





Chorus (1:26-1:52)


E|----------------------------------------------------------------------|

B|----------------------------------------------------------------------|

G|---------------------------------7-7-7-7-7-7-7-7-5-5-5-5-5-5-5-5------|x2

D|-2-2-2-2-2-2-2-2-5-5-5-5-5-5-5-5-7-7-7-7-7-7-7-7-5-5-5-5-5-5-5-5------|

A|-2-2-2-2-2-2-2-2-5-5-5-5-5-5-5-5-5-5-5-5-5-5-5-5-3-3-3-3-3-3-3-3------| 

E|-0-0-0-0-0-0-0-0-3-3-3-3-3-3-3-3--------------------------------------|





Chorus (1:26-1:52)



E|-------------------------------|

B|-------------------------------|

G|19^-19^-19^-19^----------------| (Randomly throughout the chorus, deep in the mix)

D|-------------------------------|

A|-------------------------------| 

E|-------------------------------|




Bridge (1:52-2:30)



E|-------------------------------|

B|-0---0---0---------------------|

G|---3---3---3-------------------| (Repeated many times 

D|-------------------------------|

A|-------------------------------| 

E|-------------------------------|






Chorus (2:30-2:56)


E|----------------------------------------------------------------------|

B|----------------------------------------------------------------------|

G|---------------------------------7-7-7-7-7-7-7-7-5-5-5-5-5-5-5-5------|x2

D|-2-2-2-2-2-2-2-2-5-5-5-5-5-5-5-5-7-7-7-7-7-7-7-7-5-5-5-5-5-5-5-5------|

A|-2-2-2-2-2-2-2-2-5-5-5-5-5-5-5-5-5-5-5-5-5-5-5-5-3-3-3-3-3-3-3-3------| 

E|-0-0-0-0-0-0-0-0-3-3-3-3-3-3-3-3--------------------------------------|





Chorus (2:30-2:56)


E|-------------------------------|

B|-------------------------------| (there is a lead part here buried super deep in the mix

G|-------------------------------|  the 6th, 7th, 11th and 12th notes on the high E are 

D|-------------------------------|  played in different orders)

A|-------------------------------| 

E|-------------------------------|





Bridge (2:56-3:29)


E|----------------------------------------|

B|-----0----------0-----------------------|

G|-------5------5-------0-------0---0-----|x5

D|---2--------2-------2-------------------|

A|-0--------0-------0-----3-0h3---2-------| 

E|----------------------------------------|





Bridge (3:29-3:34)

E|--------------------------------------------|

B|--------------------------------------------|

G|-7-7-7-7-7-7-7-7-5-5-5-5-5-5-5-5------------| (Palm muted, low in the mix)

D|-7-7-7-7-7-7-7-7-5-5-5-5-5-5-5-5------------|

A|-5-5-5-5-5-5-5-5-3-3-3-3-3-3-3-3------------| 

E|--------------------------------------------|





Chorus (3:34-5:25)


E|----------------------------------------------------------------------|

B|----------------------------------------------------------------------|

G|---------------------------------7-7-7-7-7-7-7-7-5-5-5-5-5-5-5-5------|x4

D|-2-2-2-2-2-2-2-2-5-5-5-5-5-5-5-5-7-7-7-7-7-7-7-7-5-5-5-5-5-5-5-5------|

A|-2-2-2-2-2-2-2-2-5-5-5-5-5-5-5-5-5-5-5-5-5-5-5-5-3-3-3-3-3-3-3-3------| 

E|-0-0-0-0-0-0-0-0-3-3-3-3-3-3-3-3--------------------------------------|





Chorus (3:34-4:25)


E|-------------------------------|

B|-------------------------------| (there is a lead part here buried super deep in the mix

G|-------------------------------|  the 6th, 7th, 11th and 12th notes on the high E are 

D|-------------------------------|  played in different orders)

A|-------------------------------| 

E|-------------------------------|





Chorus (3:34-4:25)


E|--------------------------------------|

B|-12-11^(slow bend and release)-12-11--| (this is played periodically in this version of the chrous)

G|--------------------------------------|   

D|--------------------------------------|  

A|--------------------------------------| 

E|--------------------------------------|







B) Apple of Discord 



Rhythm



(4:25-4:38)


E|-------------------------------|

B|-------------------------------|

G|-------------------------------|x4 (very low in mix, slightly distorted)

D|-------------------------------|

A|-7-7-7-7-7-7-7-7---------------| 

E|-0-0-0-0-0-0-0-0---------------|




(4:38-4:44)


E|----------------------------------------------------|

B|----------------------------------------------------|

G|----------------------------------------------------| (very low in the mic, slightly distorted)

D|----------------------------------------------------|

A|-12-12-12-12-12-12-12-12-10-10-10-10-10-10-10-10----| 

E|-0--0--0--0--0--0--0--0--0--0--0--0--0--0--0--0-----|




(4:44-4:51)


E|-------------------------------|

B|-------------------------------| (very low in the mix, slightly distorted)

G|-------------------------------|

D|-------------------------------|

A|-3-3-3-3-5-5-5-7-7-7-7-7-7-7-7-| 

E|-0-0-0-0-0-0-0-0-0-0-0-0-0-0-0-|





(4:51-5:42)


E|--------------------------------------------|

B|--------------------------------------------|

G|--------------------------------------------|x2 (very low in mix, slightly distorted)

D|-10-10-10-10-10-10-10-10--------------------|

A|-------------------------7-7-7-7-7-7-7-7----| 

E|-0--0--0--0--0--0--0--0--0-0-0-0-0-0-0-0----|





E|----------------------------------------------------|

B|----------------------------------------------------|

G|----------------------------------------------------| (very low in the mic, slightly distorted)

D|----------------------------------------------------|

A|-12-12-12-12-12-12-12-12-10-10-10-10-10-10-10-10----| 

E|-0--0--0--0--0--0--0--0--0--0--0--0--0--0--0--0-----|





E|-------------------------------|

B|-------------------------------| (very low in the mix, slightly distorted)

G|-------------------------------|

D|-------------------------------|

A|-3-3-3-3-5-5-5-7-7-7-7-7-7-7-7-| 

E|-0-0-0-0-0-0-0-0-0-0-0-0-0-0-0-|






Repeat above section twice through




(4:25-4:45)


E|----------------------------------|

B|----------------------------------|

G|-9-11--11--11--11--12~--11-11-11--|x3 (the final 3 11s have a weird effect on them)

D|----------------------------------|

A|----------------------------------| 

E|----------------------------------|





(4:45-4:51)


E|-----------------------|

B|-----------------------|

G|-9-11--11--11--11--9~--| 

D|-----------------------|

A|-----------------------| 

E|-----------------------|





(4:45-4:51)


E|-14-----14-------14------14-------|

B|----------------------------------|

G|----------------------------------|x2

D|----14------14-------14------14---|

A|----------------------------------| 

E|----------------------------------|





Repeat above section twice though





Outro (5:42-5:55)


E|----------------------|

B|----------------------| (very low in the mix, slightly distorted)

G|----------------------|

D|----------------------|

A|-3-3-3-3-5-5-5-7~~~---| 

E|-0-0-0-0-0-0-0-0~~~---|





Outro (5:42-5:57)



E|-14-----14-------14------14-------|

B|----------------------------------|

G|----------------------------------| (play until effect disintigrates note - after a while stop playing

D|----14------14-------14------14---|  note on the D string and only play the higher note - probably delayed)

A|----------------------------------| 

E|----------------------------------|



Comments