7. ARPEGIOS

Tu primer arpegio:
 
|----------0--------|----------0--------|---------0--------|------------------||
|-------0-----0-----|-------0-----0-----|------0-----0-----|------------------||
|----0-----------0--|----0-----------0--|---0-----------0--|------------------||
|-------------------|-------------------|------------------|------------------||
|-------------------|-------------------|------------------|------------------||
|-0-----------------|-0-----------------|-0----------------|-0----------------||

  p  i  m  a  m  i    etc...
  d  d  d  u  d  u    etc...
 
Arpegio de una progresión de acordes:
 
1.
 
    C                  Am                 Dm                G7
||--------------0---|--------------0---|--------------1---|--------------1---||
||----------1-------|----------1-------|----------3-------|----------0-------||
|o------0-----------|------2-----------|------2-----------|------0-----------o|
|o------------------|------------------|--0---------------|------------------o|
||--3---------------|--0---------------|------------------|------------------||
||------------------|------------------|------------------|--3---------------||

    p   i   m   a      etc...
    d   d   d   u      etc...
 
2.
 
   C                 Am                Dm                G7
||---------0-------|---------0-------|---------1-------|---------1-------||
||-----1-------1---|-----1-------1---|-----3-------3---|-----0-------0---||
|o---0---0---0---0-|---2---2---2---2-|---2---2---2---2-|---0---0---0---0-o|
|o-----------------|-----------------|-0---------------|-----------------o|
||-3---------------|-0---------------|-----------------|-----------------||
||-----------------|-----------------|-----------------|-3---------------||

   p i m i a i m i   etc...
   d d u d u d u d   etc...
 
 
 
 
 
 
 
 

 

Del blog Aprender Guitarra: http://aprenderguitarraadam.blogspot.com/
Comments