8. ACORDES CON CEJILLA

                
Acorde Si menor (Bm):
 
 
 
            ||--------|------1-|--------|--------|------      |-2-|
            ||--------|------1-|----2---|--------|-------     |-3-|
            ||--------|------1-|--------|----4---|------      |-4-|
            ||--------|------1-|--------|----3---|-----       |-4-|
            ||--------|------1-|--------|--------|----        |-2-|
            ||--------|--------|--------|--------|-----       |---|

1er. Paso: Coloca la posición del acorde de La menor (Am) con el 2do. 3er. y 4to. dedo, colocando la posición del acorde a partir del 3er. traste:

 
||--------|----------|----------|----------|-------
||--------|----------|-----2----|----------|--------
||--------|----------|----------|-----4----|-------
||--------|----------|----------|-----3----|------
||--------|----------|----------|----------|-----
||--------|----------|----------|----------|-------
2do. Paso: Después coloca la cejilla en el 2do. espacio muy cerca del 2do. traste con el dedo 1 (dedo índice de la mano izquierda), a partir de la 5ta cuerda:
 
||--------|--------1-|----------|----------|-------
||--------|--------1-|-----2----|----------|--------
||--------|--------1-|----------|-----4----|-------
||--------|--------1-|----------|-----3----|------
||--------|--------1-|----------|----------|-----
||--------|----------|----------|----------|-------
3er. Paso: Al tener la posición lista arpegia el acorde hacia abajo con tu púa - plumilleos hacia abajo (y/o con el pulgar), verificando que las cuerdas suenen bien y luego lo rasgueas. Abajo te lo indico en tablatura:
 
|--------------------------2---------2---------||
|--------------------3---------------3---------||
|--------------4---------------------4---------||
|--------4---------------------------4---------||
|--2---------------------------------2---------||
|----------------------------------------------||
            
4to. Paso: Vuélvelo a intentar una y otra vez hasta que lo tengas dominado.
 
Escucha el ejercicio al tiempo en que lo practicas:
 

Comments