Sufjan Stevens - In The Devil's Territory

(part 2)


<-Home

<-Part 2

This is the second part to In The Devil's Territory. It's relatively straight forward, yup... 

capo 2 on both banjos

Banjo 1
D:0h5-0h5--------|0h5-0h5--------|0h3-0h3--------|0h3-0h3--------|
B:-------3-3-----|-------3-3-----|-------3-3-----|-------3-3-----|
G:---------------|---------------|---------------|---------------|
D:---------------|---------------|---------------|---------------|
A#:--------------|---------------|---------------|---------------|
Banjo 2
D:-5-5---------|5-5---------|3-3---------|3-3---------|
B:-----3-3-----|----3-3-----|----3-3-----|----3-3-----|
G:-0-0-0-0---0-|0-0-0-0---0-|0-0-0-0---0-|0-0-0-0---0-|
D:-------------|------------|------------|------------|
A#:--------0---|--------0---|--------0---|--------0---|


Banjo 1
D:0h5-0h5--------|0h5-0h5--------|0h3-0h3--------|0h3-0h3--------|
B:-------3-3-----|-------3-3-----|-------3-3-----|-------3-3-----|
G:---------------|---------------|---------------|---------------|
D:---------------|---------------|---------------|---------------|
A#:--------------|---------------|---------------|---------------|
Banjo 2
D:-5-5---------|5-5---------|3-3---------|3-3---------|
B:-----3-3-----|----3-3-----|----3-3-----|----3-3-----|
G:-0-0-0-0---0-|0-0-0-0---0-|0-0-0-0---0-|0-0-0-0---0-|
D:-------------|------------|------------|------------|
A#:--------0---|--------0---|--------0---|--------0---|


Banjo 1
D:0h2-0h2--------|0h2-0h2--------|---------------|---------------|
B:-------1-1-----|-------1-1-----|0h1-0h1-3-3----|0h1-0h1-3-3----|
G:---------------|---------------|---------------|---------------|
D:---------------|---------------|---------------|---------------|
A#:--------------|---------------|---------------|---------------|
Banjo 2
D:-2-2---------|2-2---------|----0-0-----|----0-0-----|
B:-----1-1-----|----1-1-----|0-0---------|0-0---------|
G:-0-0-0-0---0-|0-0-0-0---0-|0-0-0-0---0-|0-0-0-0---0-|
D:-------------|------------|------------|------------|
A#:--------0---|--------0---|--------0---|--------0---|


Banjo 1
D:0h2-0h2--------|0h2-0h2--------|---------------|---------------|
B:-------1-1-----|-------1-1-----|0h1-0h1-3-3----|0h1-0h1-3-3----|
G:---------------|---------------|---------------|---------------|
D:---------------|---------------|---------------|---------------|
A#:--------------|---------------|---------------|---------------|
Banjo 2
D:-2-2---------|2-2---------|----0-0-----|----0-0-----|
B:-----1-1-----|----1-1-----|0-0---------|0-0---------|
G:-0-0-0-0---0-|0-0-0-0---0-|0-0-0-0---0-|0-0-0-0---0-|
D:-------------|------------|------------|------------|
A#:--------0---|--------0---|--------0---|--------0---|


Banjo 1
D:0h5-0h5--------|0h5-0h5--------|0h5-0h5--------|0h5-0h5--------|
B:-------3-3-----|-------3-3-----|-------3-3-----|-------3-3-----|
G:---------------|---------------|---------------|---------------|
D:---------------|---------------|---------------|---------------|
A#:--------------|---------------|---------------|---------------|
Banjo 2
D:-2-2---------|2-2---------|2-2---------|2-2---------|
B:-----1-1-----|----1-1-----|----1-1-----|----1-1-----|
G:-0-0-0-0---0-|0-0-0-0---0-|0-0-0-0---0-|0-0-0-0---0-|
D:-------------|------------|------------|------------|
A#:--------0---|--------0---|--------0---|--------0---|