Sufjan Stevens - In The Devil's Territory (part 1)


From Seven Swans

<-Home 

Part 2->


I only have the first part transcribed but more is on the way. This is
a fun one to play. If you own a four string banjo or if your g-string is broken
you can play the A# that is on the high D string, the 5th fret (relative to 
the capo of course).
 
by Michael Lavrisha

capo 2nd fret

D:-----|----0-0-----|----0-0-----|----0-0-----|----0-0-----|
B:-0-0-|0-0---------|0-0---------|0-0---------|0-0---------|
G:-----|0-0-0-0---0-|0-0-0-0---0-|----0-0---0-|----0-0---0-|
D:-----|------------|------------|4-4---------|4-4---------|
A#:----|--------0---|--------0---|--------0---|--------0---|

D:-----0-0-----|----0-0-----|----0-0-----|----0-0-----|
B:-0-0---------|0-0---------|0-0---------|0-0---------|
G:-0-0-0-0---0-|0-0-0-0---0-|----0-0---0-|----0-0---0-|
D:-------------|------------|4-4---------|4-4---------|
A#:--------0---|--------0---|--------0---|--------0---|

D:-----0-0-----|----0-0-----|----0-0-----|----0-0-----|
B:-1-1---------|1-1---------|0-0---------|0-0---------|
G:-0-0-0-0---0-|0-0-0-0---0-|0-0-0-0---0-|0-0-0-0---0-|
D:-------------|------------|------------|------------|
A#:--------0---|--------0---|--------0---|--------0---|

D:-----0-0-----|----0-0-----|----0-0-----|----0-0-----|
B:-1-1---------|1-1---------|0-0---------|0-0---------|
G:-0-0-0-0---0-|0-0-0-0---0-|0-0-0-0---0-|0-0-0-0---0-|
D:-------------|------------|------------|------------|
A#:--------0---|--------0---|--------0---|--------0---|

D:-2-2-0-0-----|2-2-0-0-----|----0-0-----|----0-0-----|
B:-------------|------------|0-0---------|0-0---------|
G:-0-0-0-0---0-|0-0-0-0---0-|0-0-0-0---0-|0-0-0-0---0-|
D:-------------|------------|------------|------------|
A#:--------0---|--------0---|--------0---|--------0---|

D:-2-2-0-0-----|2-2-0-0-----|----0-0-----|----0-0-----|
B:-------------|------------|0-0---------|0-0---------|
G:-0-0-0-0---0-|0-0-0-0---0-|0-0-0-0---0-|0-0-0-0---0-|
D:-------------|------------|------------|------------|
A#:--------0---|--------0---|--------0---|--------0---|

D:-----0-0-----|----0-0-----|----0-0-----|----0-0-----|
B:-1-1---------|1-1---------|1-1---------|1-1---------|
G:-0-0-0-0---0-|0-0-0-0-----|0-0-0-0---0-|0-0-0-0---0-|
D:-------------|------------|------------|------------|
A#:--------0---|--------0---|--------0---|--------0---|