Sufjan Stevens - All The Trees Of The Field Will Clap Their Hands

From the Seven Swans

<-Home

#-------------------------------PLEASE NOTE------------------------------------#
#This file is the author's own work and represents their interpretation of the #
#song. You may only use this file for private study, scholarship, or research. #
#------------------------------------------------------------------------------#

By Michael Lavrisha

capo the 4th fret

This is a relatively simple song. The trick to the main hammer-on part is to pick the B and D 
strings quickly and separately. Also try not to hold down that hammered on note. The second part 
was a difficult to hear, so I would advise that you just play around with the riffs and see what 
you like best.

Enjoy!

D:----------0----0-|---------0----0-|---------0----0-|---------0----0-|
B:---------0h1-----|--------0h1-----|--------0h1-----|--------0h1-----|
G:-----2-------0---|----0-------0---|----2-------0---|----0-------0---|
D:-0---------------|2---------------|3---------------|2---------------|

D:----------0----0-|---------0----0-|---------0----0-|---------0----0-|
B:---------0h1-----|--------0h1-----|--------0h1-----|--------0h1-----|
G:-----2-------0---|----0-------0---|----2-------0---|----0-------0---|
D:-0---------------|2---------------|3---------------|2---------------|

If I am alive this time next year
D:----------0----0-|---------0----0-|---------0----0-|---------0----0-|
B:---------0h1-----|--------0h1-----|--------0h1-----|--------0h1-----|
G:-----2-------0---|----0-------0---|----2-------0---|----0-------0---|
D:-0---------------|2---------------|3---------------|2---------------|

D:----------0----0-|---------0----0-|---------0----0-|---------0----0-|
B:---------0h1-----|--------0h1-----|--------0h1-----|--------0h1-----|
G:-----2-------0---|----0-------0---|----2-------0---|----0-------0---|
D:-0---------------|2---------------|3---------------|2---------------|

Will I have arrived in time to share
D:----------0----0-|---------0----0-|---------0----0-|---------0----0-|
B:---------0h1-----|--------0h1-----|--------0h1-----|--------0h1-----|
G:-----2-------0---|----0-------0---|----2-------0---|----0-------0---|
D:-0---------------|2---------------|3---------------|2---------------|

D:----------0----0-|---------0----0-|---------0----0-|---------0----0-|
B:---------0h1-----|--------0h1-----|--------0h1-----|--------0h1-----|
G:-----2-------0---|----0-------0---|----2-------0---|----0-------0---|
D:-0---------------|2---------------|3---------------|2---------------|

And mine is about as good this far
D:----------0----0-|---------0----0-|---------0----0-|---------0----0-|
B:---------0h1-----|--------0h1-----|--------0h1-----|--------0h1-----|
G:-----2-------0---|----0-------0---|----2-------0---|----0-------0---|
D:-0---------------|2---------------|3---------------|2---------------|

D:----------0----0-|---------0----0-|---------0----0-|---------0----0-|
B:---------0h1-----|--------0h1-----|--------0h1-----|--------0h1-----|
G:-----2-------0---|----0-------0---|----2-------0---|----0-------0---|
D:-0---------------|2---------------|3---------------|2---------------|

And I'm still applied to what you are
D:----------0----0-|---------0----0-|---------0----0-|---------0----0-|
B:---------0h1-----|--------0h1-----|--------0h1-----|--------0h1-----|
G:-----2-------0---|----0-------0---|----2-------0---|----0-------0---|
D:-0---------------|2---------------|3---------------|2---------------|

And
D:----------0----0-|---------0----0-|---------0----0-|---------0----0-|
B:---------0h1-----|--------0h1-----|--------0h1-----|--------0h1-----|
G:-----2-------0---|----0-------0---|----2-------0---|----0-------0---|
D:-0---------------|2---------------|3---------------|2---------------|

Piano comes in, 1:06

I am joining all my thoughs to you
D:----------0----0-|---------0----0-|---------0----0-|---------0----0-|
B:---------0h1-----|--------0h1-----|--------0h1-----|--------0h1-----|
G:-----2-------0---|----0-------0---|----2-------0---|----0-------0---|
D:-0---------------|2---------------|3---------------|2---------------|

And
D:----------0----0-|---------0----0-|---------0----0-|---------0----0-|
B:---------0h1-----|--------0h1-----|--------0h1-----|--------0h1-----|
G:-----2-------0---|----0-------0---|----2-------0---|----0-------0---|
D:-0---------------|2---------------|3---------------|2---------------|

I'm preparing every part for you
D:----------0----0-|---------0----0-|---------0----0-|---------0----0-|
B:---------0h1-----|--------0h1-----|--------0h1-----|--------0h1-----|
G:-----2-------0---|----0-------0---|----2-------0---|----0-------0---|
D:-0---------------|2---------------|3---------------|2---------------|

D:----------0----0-|---------0----0-|---------0----0-|---------0----0-|
B:---------0h1-----|--------0h1-----|--------0h1-----|--------0h1-----|
G:-----2-------0---|----0-------0---|----2-------0---|----0-------0---|
D:-0---------------|2---------------|3---------------|2---------------|

D:----------0----0-|---------0----0-|---------0----0-|---------0----0-|
B:---------0h1-----|--------0h1-----|--------0h1-----|--------0h1-----|
G:-0h2---------0---|0-----------0---|2-----------0---|0-----------0---|
D:-----0-----------|----0-----------|----0-----------|----0-----------|

And
D:----------0----0-|---------0----0-|---------0----0-|---------0----0-|
B:---------0h1-----|--------0h1-----|--------0h1-----|--------0h1-----|
G:-0h2---------0---|0-----------0---|2-----------0---|0-----------0---|
D:-----0-----------|----0-----------|----0-----------|----0-----------|

I heard from the trees a great parade
D:----------0----0-|---------0----0-|---------0----0-|---------0----0-|
B:---------0h1-----|--------0h1-----|--------0h1-----|--------0h1-----|
G:-0h2---------0---|0-----------0---|2-----------0---|0-----------0---|
D:-----0-----------|----0-----------|----0-----------|----0-----------|

D:----------0----0-|---------0----0-|---------0----0-|---------0----0-|
B:---------0h1-----|--------0h1-----|--------0h1-----|--------0h1-----|
G:-0h2---------0---|0-----------0---|2-----------0---|0-----------0---|
D:-----0-----------|----0-----------|----0-----------|----0-----------|

And I heard from the hills a band was made
D:----------0----0-|---------0----0-|---------0----0-|---------0----0-|
B:---------0h1-----|--------0h1-----|--------0h1-----|--------0h1-----|
G:-0h2---------0---|0-----------0---|2-----------0---|0-----------0---|
D:-----0-----------|----0-----------|----0-----------|----0-----------|

D:----------0----0-|---------0----0-|---------0----0-|---------0----0-|
B:---------0h1-----|--------0h1-----|--------0h1-----|--------0h1-----|
G:-0h2---------0---|0-----------0---|2-----------0---|0-----------0---|
D:-----0-----------|----0-----------|----0-----------|----0-----------|

And will I be invited to the sound
D:----------0----0-|---------0----0-|---------0----0-|---------0----0-|
B:---------0h1-----|--------0h1-----|--------0h1-----|--------0h1-----|
G:-0h2---------0---|0-----------0---|2-----------0---|0-----------0---|
D:-----0-----------|----0-----------|----0-----------|----0-----------|

D:----------0----0-|---------0----0-|---------0----0-|---------0----0-|
B:---------0h1-----|--------0h1-----|--------0h1-----|--------0h1-----|
G:-0h2---------0---|0-----------0---|2-----------0---|0-----------0---|
D:-----0-----------|----0-----------|----0-----------|----0-----------|

And will I be apart of what you've made
D:----------0----0-|---------0----0-|---------0----0-|---------0----0-|
B:---------0h1-----|--------0h1-----|--------0h1-----|--------0h1-----|
G:-0h2---------0---|0-----------0---|2-----------0---|0-----------0---|
D:-----0-----------|----0-----------|----0-----------|----0-----------|

And
D:----------0----0-|---------0----0-|---------0----0-|---------0----0-|
B:---------0h1-----|--------0h1-----|--------0h1-----|--------0h1-----|
G:-0h2---------0---|0-----------0---|2-----------0---|0-----------0---|
D:-----0-----------|----0-----------|----0-----------|----0-----------|

I am throwing all my thoughts away
D:----------0----0-|---------0----0-|---------0----0-|---------0----0-|
B:---------0h1-----|--------0h1-----|--------0h1-----|--------0h1-----|
G:-0h2---------0---|0-----------0---|2-----------0---|0-----------0---|
D:-----0-----------|----0-----------|----0-----------|----0-----------|

And
D:----------0----0-|---------0----0-|---------0----0-|---------0----0-|
B:---------0h1-----|--------0h1-----|--------0h1-----|--------0h1-----|
G:-0h2---------0---|0-----------0---|2-----------0---|0-----------0---|
D:-----0-----------|----0-----------|----0-----------|----0-----------|

I'm destroying every bet I've made
D:----------0----0-|---------0----0-|---------0----0-|---------0----0-|
B:---------0h1-----|--------0h1-----|--------0h1-----|--------0h1-----|
G:-0h2---------0---|0-----------0---|2-----------0---|0-----------0---|
D:-----0-----------|----0-----------|----0-----------|----0-----------|

And
D:----------0----0-|---------0----0-|---------0----0-|---------0----0-|
B:---------0h1-----|--------0h1-----|--------0h1-----|--------0h1-----|
G:-0h2---------0---|0-----------0---|2-----------0---|0-----------0---|
D:-----0-----------|----0-----------|----0-----------|----0-----------|

I am joining all my thoughts to you
D:----------0----0-|---------0----0-|---------0----0-|---------0----0-|
B:---------0h1-----|--------0h1-----|--------0h1-----|--------0h1-----|
G:-0h2---------0---|0-----------0---|2-----------0---|0-----------0---|
D:-----0-----------|----0-----------|----0-----------|----0-----------|

And I'm
D:----------0----0-|---------0----0-|---------0----0-|---------0----0-|
B:---------0h1-----|--------0h1-----|--------0h1-----|--------0h1-----|
G:-0h2---------0---|0-----------0---|2-----------0---|0-----------0---|
D:-----0-----------|----0-----------|----0-----------|----0-----------|

preparing every part for
D:----------0----0-|---------0----0-|---------0----0-|---------0----0-|
B:---------0h1-----|--------0h1-----|--------0h1-----|--------0h1-----|
G:-0h2---------0---|0-----------0---|2-----------0---|0-----------0---|
D:-----0-----------|----0-----------|----0-----------|----0-----------|

you for you
D:----------0----0-|---------0----0-|---------0----0-|---------0----0-|
B:---------0h1-----|--------0h1-----|--------0h1-----|--------0h1-----|
G:-0h2---------0---|0-----------0---|2-----------0---|0-----------0---|
D:-----0-----------|----0-----------|----0-----------|----0-----------|

D:----------0----0-|---------0----0-|---------0----0-|---------0----0-|
B:---------0h1-----|--------0h1-----|--------0h1-----|--------0h1-----|
G:-0h2---------0---|0-----------0---|2-----------0---|0-----------0---|
D:-----0-----------|----0-----------|----0-----------|----0-----------|

D:----------0----0-|---------0----0-|---------0----0-|---------0----0-|
B:---------0h1-----|--------0h1-----|--------0h1-----|--------0h1-----|
G:-0h2---------0---|0-----------0---|2-----------0---|0-----------0---|
D:-----0-----------|----0-----------|----0-----------|----0-----------|

D:----------0----0-|---------0----0-|---------0----0-|---------0----0-|
B:---------0h1-----|--------0h1-----|--------0h1-----|--------0h1-----|
G:-0h2---------0---|0-----------0---|2-----------0---|0-----------0---|
D:-----0-----------|----0-----------|----0-----------|----0-----------|

D:----------0----0-|---------0----0-|---------0----0-|---------0----0-|
B:---------0h1-----|--------0h1-----|--------0h1-----|--------0h1-----|
G:-0h2---------0---|0-----------0---|2-----------0---|0-----------0---|
D:-----0-----------|----0-----------|----0-----------|----0-----------|

D:----------0----0-|---------0----0-|---------0----0-|---------0----0-|
B:---------0h1-----|--------0h1-----|--------0h1-----|--------0h1-----|
G:-0h2---------0---|0-----------0---|2-----------0---|0-----------0---|
D:-----0-----------|----0-----------|----0-----------|----0-----------|