Iron and Wine - Each Coming Night

From Our Endless Numbered Days

<- Home 

This is the banjo part at 1:23ish. The whole thing repeats once.

by Michael Lavrisha

D:-------------------------------------|
B:----7p5------------------------------|
G:--------7---4h6-7--4-----4-6-7-6-4---|
D:---------------------5-7-----------7-|

D:-------------------------------------|
B:----7p5------------------------------|
G:----7---7---4h6-7--4-----4-7-6-------|
D:---------------------5-7---------7---|

Lyrics:
Will you say when I'm gone away
"My lover came to me and we'd lay
In rooms unfamiliar but until now"

Will you say to them when I'm gone
"I loved your son for his sturdy arms
We both learned to cradle then live without"

Will you say when I'm gone away
'Your father's body was judgement day
We both dove and rose to the riverside"

Will you say to me when I'm gone
"Your face has faded but lingers on
Because light strikes a deal with each coming night"