Hellogoodbye - Oh, is it love?

From Zombies! Aliens! Vampires! Dinosaurs!

<-Home 

Tab by Michael Lavrisha

Chords:

G Am7 Bm7 C x2

D:-5-|-5-|-7-|-10-|
B:-3-|-5-|-7-|-8--|
G:-4-|-5-|-7-|-9--|
D:-5-|-7-|-9-|-10-|

Oh, it is love
From the first time I set my eyes upon yours
Thinking oh, is it love?

0:16

G D C# C Cm x6

D:-5-|-12-|-11-|-10-|-10-|
B:-3-|-10-|-9--|-8--|-8--|
G:-4-|-11-|-10-|-9--|-8--|
D:-5-|-12-|-11-|-10-|-10-|

Oh dear
It's been hardly a moment
And you are already missed
There is still a bit of your skin
That I'm yet to have kissed
Oh, say "Please do not go"
When you know, oh, you know you can trust

0:55

G Bm7 G Bm7

D:-9-|-7-|-9-|-5-|
B:-8-|-7-|-8-|-5-|
G:-7-|-7-|-7-|-5-|
D:-9-|-9-|-9-|-7-|

We'll be holding hands once again
All our broken plans, I will mend
I will hold you tight so you know

G Am7 Bm7 C x2

D:-5-|-5-|-7-|-10-|
B:-3-|-5-|-7-|-8--|
G:-4-|-5-|-7-|-9--|
D:-5-|-7-|-9-|-10-|

It is love
From the first time I pressed my hand into yours
Thinking, oh, is it love?

Mandolin part at 1:33

D:-----5-7-8-7h8-7/5----
B:-3-4---------------4-3
G:----------------------
D:----------------------

D:----------------7-6-5-----5---5-5-7
B:-----3---5-3----------5-5---4---4-- x2
G:-------4-----4--7-6-5-------5------
D:-5----------------------5----------

Dear, it's been hardly three days
And I'm longing to feel your embrace
There are several days before
I can see your sweet face

D:----------------7-6-5-----5-----5-7
B:-----3---5-3--------5---------4----
G:-------4-----4--7-6-5-------5------
D:-5------------------5--------------

Oh say, wouldn't you like to be older and married with me

D:----------------7-6-------------5-7
B:-----3---5-3---------5--------5----
G:-------4-----4--7-6---------5------
D:-5---------------------------------

Oh say, wouldn't it be nice to know right now that we'll be


G Bm7 G Bm7

D:-9-|-7-|-9-|-5-|
B:-8-|-7-|-8-|-5-|
G:-7-|-7-|-7-|-5-|
D:-9-|-9-|-9-|-7-|

Someday holding hands in the end
All our broken plans will have been
I will kiss you soft so you know

D:---------5---------------5---------------7----------------10----------
B:-----3-----3---3-----5-----5---5-----7-----7---7------8------8---8---- x2
G:---4---4-----4-----5---5-----5-----7---7-----7------9---9------9------
D:-5---------------7---------------9---------------10-------------------

It is love from the first
Time I pressed my lips against yours
Thinking oh is it love?


Cm
D:----10
B:----8
G:----8
D:-10-10

D C Cm G D C Cm G
D:-12----10----10----9----12----10----10----9----
B:-10----8-----8-----8----10----8-----8-----8----
G:-11----9-----8-----7----11----9-----8-----7----
D:-12----10----10----9----12----10----10----9----

Your heart may long for love that is more near
So when I'm gone these words will be here

at 2:53
Cm7 G
D:----9-----9-----9---9-----9-----9-
B:------8-----8---------8-----8----- x3
G:--------8-----8---------7-----7---
D:-10---------------9---------------

To ease every fear
And dry up every tear
And make it very clear
I kiss you and I know

D:-9--9--|-------5-----------5-----------7------------10- -10---
B:-8--8--|-----3-----------5-----------7------------7---- x2 -9----
G:-8--8--|---4-----------5-----------7------------9------ -8----
D:-10-10-|-5-------5-5/7-------7-7/9-------9-9/10-------- -10---

It is love from the first
Time I pressed my lips against yours
Thinking oh is it love?

Back to:

G Am7 Bm7 C x4

Oh it is love from the first
Time I pressed my lips against yours
Thinking oh is it love?

Oh I kiss you and I know
It is love from the first
Time I pressed my lips against yours
Thinking oh is it love?

End on G chord