  0
SECTION
  2
HEADER
  9
$ACADVER
  1
AC1009
  9
$INSBASE
 10
0.0
 20
0.0
 30
0.0
  9
$EXTMIN
 10
0.3595521173541414
 20
0.1246460654315688
 30
0.0
  9
$EXTMAX
 10
67.139090862269001
 20
23.269449074355659
 30
0.0
  9
$LIMMIN
 10
0.0
 20
0.0
  9
$LIMMAX
 10
12.0
 20
9.0
  9
$ORTHOMODE
 70
     0
  9
$REGENMODE
 70
     1
  9
$FILLMODE
 70
     1
  9
$QTEXTMODE
 70
     0
  9
$MIRRTEXT
 70
     0
  9
$DRAGMODE
 70
     2
  9
$LTSCALE
 40
1.0
  9
$OSMODE
 70
    39
  9
$ATTMODE
 70
     1
  9
$TEXTSIZE
 40
0.2
  9
$TRACEWID
 40
0.05
  9
$TEXTSTYLE
  7
STANDARD
  9
$CLAYER
  8
0
  9
$CELTYPE
  6
BYLAYER
  9
$CECOLOR
 62
   256
  9
$DIMSCALE
 40
1.0
  9
$DIMASZ
 40
0.18
  9
$DIMEXO
 40
0.0625
  9
$DIMDLI
 40
0.38
  9
$DIMRND
 40
0.0
  9
$DIMDLE
 40
0.0
  9
$DIMEXE
 40
0.18
  9
$DIMTP
 40
0.0
  9
$DIMTM
 40
0.0
  9
$DIMTXT
 40
0.18
  9
$DIMCEN
 40
0.09
  9
$DIMTSZ
 40
0.0
  9
$DIMTOL
 70
     0
  9
$DIMLIM
 70
     0
  9
$DIMTIH
 70
     1
  9
$DIMTOH
 70
     1
  9
$DIMSE1
 70
     0
  9
$DIMSE2
 70
     0
  9
$DIMTAD
 70
     0
  9
$DIMZIN
 70
     0
  9
$DIMBLK
  1

  9
$DIMASO
 70
     1
  9
$DIMSHO
 70
     1
  9
$DIMPOST
  1

  9
$DIMAPOST
  1

  9
$DIMALT
 70
     0
  9
$DIMALTD
 70
     2
  9
$DIMALTF
 40
25.399999999999999
  9
$DIMLFAC
 40
1.0
  9
$DIMTOFL
 70
     0
  9
$DIMTVP
 40
0.0
  9
$DIMTIX
 70
     0
  9
$DIMSOXD
 70
     0
  9
$DIMSAH
 70
     0
  9
$DIMBLK1
  1

  9
$DIMBLK2
  1

  9
$DIMSTYLE
  2
STANDARD
  9
$DIMCLRD
 70
     0
  9
$DIMCLRE
 70
     0
  9
$DIMCLRT
 70
     0
  9
$DIMTFAC
 40
1.0
  9
$DIMGAP
 40
0.09
  9
$LUNITS
 70
     2
  9
$LUPREC
 70
     4
  9
$SKETCHINC
 40
0.1
  9
$FILLETRAD
 40
0.0
  9
$AUNITS
 70
     0
  9
$AUPREC
 70
     0
  9
$MENU
  1
.
  9
$ELEVATION
 40
0.0
  9
$PELEVATION
 40
0.0
  9
$THICKNESS
 40
0.0
  9
$LIMCHECK
 70
     0
  9
$BLIPMODE
 70
     0
  9
$CHAMFERA
 40
0.0
  9
$CHAMFERB
 40
0.0
  9
$SKPOLY
 70
     0
  9
$TDCREATE
 40
2454390.8739377079
  9
$TDUPDATE
 40
2454391.6773318052
  9
$TDINDWG
 40
0.0738832755
  9
$TDUSRTIMER
 40
0.0738677315
  9
$USRTIMER
 70
     1
  9
$ANGBASE
 50
0.0
  9
$ANGDIR
 70
     0
  9
$PDMODE
 70
     0
  9
$PDSIZE
 40
0.0
  9
$PLINEWID
 40
0.0
  9
$COORDS
 70
     1
  9
$SPLFRAME
 70
     0
  9
$SPLINETYPE
 70
     6
  9
$SPLINESEGS
 70
     8
  9
$ATTDIA
 70
     0
  9
$ATTREQ
 70
     1
  9
$HANDLING
 70
     1
  9
$HANDSEED
  5
16CE
  9
$SURFTAB1
 70
     6
  9
$SURFTAB2
 70
     6
  9
$SURFTYPE
 70
     6
  9
$SURFU
 70
     6
  9
$SURFV
 70
     6
  9
$UCSNAME
  2

  9
$UCSORG
 10
0.0
 20
0.0
 30
0.0
  9
$UCSXDIR
 10
1.0
 20
0.0
 30
0.0
  9
$UCSYDIR
 10
0.0
 20
1.0
 30
0.0
  9
$PUCSNAME
  2

  9
$PUCSORG
 10
0.0
 20
0.0
 30
0.0
  9
$PUCSXDIR
 10
1.0
 20
0.0
 30
0.0
  9
$PUCSYDIR
 10
0.0
 20
1.0
 30
0.0
  9
$USERI1
 70
     0
  9
$USERI2
 70
     0
  9
$USERI3
 70
     0
  9
$USERI4
 70
     0
  9
$USERI5
 70
     0
  9
$USERR1
 40
0.0
  9
$USERR2
 40
0.0
  9
$USERR3
 40
0.0
  9
$USERR4
 40
0.0
  9
$USERR5
 40
0.0
  9
$WORLDVIEW
 70
     1
  9
$SHADEDGE
 70
     3
  9
$SHADEDIF
 70
    70
  9
$TILEMODE
 70
     1
  9
$MAXACTVP
 70
    64
  9
$PLIMCHECK
 70
     0
  9
$PEXTMIN
 10
0.0
 20
0.0
 30
0.0
  9
$PEXTMAX
 10
0.0
 20
0.0
 30
0.0
  9
$PLIMMIN
 10
0.0
 20
0.0
  9
$PLIMMAX
 10
12.0
 20
9.0
  9
$UNITMODE
 70
     0
  9
$VISRETAIN
 70
     1
  9
$PLINEGEN
 70
     0
  9
$PSLTSCALE
 70
     1
  0
ENDSEC
  0
SECTION
  2
TABLES
  0
TABLE
  2
VPORT
 70
     1
  0
VPORT
  2
*ACTIVE
 70
     0
 10
0.0
 20
0.0
 11
1.0
 21
1.0
 12
7.2003056520123234
 22
3.366867786293184
 13
0.0
 23
0.0
 14
0.5
 24
0.5
 15
0.5
 25
0.5
 16
0.0
 26
0.0
 36
1.0
 17
0.0
 27
0.0
 37
0.0
 40
13.30339442066977
 41
1.5324015247776359
 42
50.0
 43
0.0
 44
0.0
 50
0.0
 51
0.0
 71
     0
 72
 20000
 73
     1
 74
     3
 75
     0
 76
     0
 77
     0
 78
     0
  0
ENDTAB
  0
TABLE
  2
LTYPE
 70
     4
  0
LTYPE
  2
CONTINUOUS
 70
     0
  3
Solid line
 72
    65
 73
     0
 40
0.0
  0
LTYPE
  2
CENTER
 70
     0
  3
Center ____ _ ____ _ ____ _ ____ _ ____ _ ____
 72
    65
 73
     4
 40
2.0
 49
1.25
 49
-0.25
 49
0.25
 49
-0.25
  0
LTYPE
  2
HIDDEN
 70
     0
  3
Hidden __ __ __ __ __ __ __ __ __ __ __ __ __ _
 72
    65
 73
     2
 40
0.375
 49
0.25
 49
-0.125
  0
ENDTAB
  0
TABLE
  2
LAYER
 70
     4
  0
LAYER
  2
0
 70
     0
 62
     7
  6
CONTINUOUS
  0
LAYER
  2
VISIBLE__ANSI_
 70
     0
 62
     7
  6
CONTINUOUS
  0
LAYER
  2
PITCH_DIA
 70
     0
 62
    10
  6
CONTINUOUS
  0
LAYER
  2
DEFPOINTS
 70
     0
 62
     7
  6
CONTINUOUS
  0
ENDTAB
  0
TABLE
  2
STYLE
 70
     2
  0
STYLE
  2
STANDARD
 70
     0
 40
0.0
 41
1.0
 50
0.0
 71
     0
 42
0.2
  3
txt
  4

  0
STYLE
  2
ANNOTATIVE
 70
     0
 40
0.0
 41
1.0
 50
0.0
 71
     0
 42
0.2
  3
txt.shx
  4

  0
ENDTAB
  0
TABLE
  2
VIEW
 70
     0
  0
ENDTAB
  0
TABLE
  2
UCS
 70
     0
  0
ENDTAB
  0
TABLE
  2
APPID
 70
     9
  0
APPID
  2
ACAD
 70
     0
  0
APPID
  2
ACADANNOPO
 70
     0
  0
APPID
  2
ACADANNOTATIVE
 70
     0
  0
APPID
  2
ACAD_DSTYLE_DIMJAG
 70
     0
  0
APPID
  2
ACAD_DSTYLE_DIMTALN
 70
     0
  0
APPID
  2
ACAD_MLEADERVER
 70
     0
  0
APPID
  2
ACAECLAYERSTANDARD
 70
     0
  0
APPID
  2
TB_S_MPD
 70
     0
  0
APPID
  2
ACAD_EXEMPT_FROM_CAD_STANDARDS
 70
     0
  0
ENDTAB
  0
TABLE
  2
DIMSTYLE
 70
     3
  0
DIMSTYLE
  2
STANDARD
 70
     0
  3

  4

  5

  6

  7

 40
1.0
 41
0.18
 42
0.0625
 43
0.38
 44
0.18
 45
0.0
 46
0.0
 47
0.0
 48
0.0
140
0.18
141
0.09
142
0.0
143
25.399999999999999
144
1.0
145
0.0
146
1.0
147
0.09
 71
     0
 72
     0
 73
     1
 74
     1
 75
     0
 76
     0
 77
     0
 78
     0
170
     0
171
     2
172
     0
173
     0
174
     0
175
     0
176
     0
177
     0
178
     0
  0
DIMSTYLE
  2
ANNOTATIVE
 70
     0
  3

  4

  5

  6

  7

 40
0.0
 41
0.18
 42
0.0625
 43
0.38
 44
0.18
 45
0.0
 46
0.0
 47
0.0
 48
0.0
140
0.18
141
0.09
142
0.0
143
25.399999999999999
144
1.0
145
0.0
146
1.0
147
0.09
 71
     0
 72
     0
 73
     1
 74
     1
 75
     0
 76
     0
 77
     0
 78
     0
170
     0
171
     2
172
     0
173
     0
174
     0
175
     0
176
     0
177
     0
178
     0
  0
ENDTAB
  0
ENDSEC
  0
SECTION
  2
BLOCKS
  0
BLOCK
  8
0
  2
$MODEL_SPACE
 70
     0
 10
0.0
 20
0.0
 30
0.0
  3
$MODEL_SPACE
  1

  0
ENDBLK
  5
21
  8
0
  0
BLOCK
 67
     1
  8
0
  2
$PAPER_SPACE
 70
     0
 10
0.0
 20
0.0
 30
0.0
  3
$PAPER_SPACE
  1

  0
ENDBLK
  5
5B
 67
     1
  8
0
  0
BLOCK
  8
0
  2
*D4
 70
     1
 10
0.0
 20
0.0
 30
0.0
  3
*D4
  1

  0
LINE
  5
398
  8
0
 62
     0
 10
10.55764735557924
 20
15.747857798264031
 30
0.0
 11
8.6016640702406768
 21
13.198770751958749
 31
0.0
  0
LINE
  5
399
  8
0
 62
     0
 10
11.017599438857101
 20
15.440527641751279
 30
0.0
 11
9.4110724874667735
 21
12.657941338215929
 31
0.0
  0
ARC
  5
39A
  8
0
 62
     0
 10
13.132099438857701
 20
19.102949074354811
 30
0.0
 40
7.2620539027789661
 50
231.07980889808229
 51
232.4999999999867
  0
LINE
  5
39B
  8
0
 62
     0
 10
8.5698065023943624
 20
13.452912786970099
 30
0.0
 11
8.3898065023943627
 21
13.452912786970099
 31
0.0
  0
ARC
  5
39C
  8
0
 62
     0
 10
13.132099438857701
 20
19.102949074354811
 30
0.0
 40
7.2620539027789661
 50
233.92019110189111
 51
238.5798088980828
  0
SOLID
  5
39D
  8
0
 62
     0
 10
8.8374252956970967
 20
13.20975039603003
 30
0.0
 11
8.8733582456890865
 21
13.257800610440301
 31
0.0
 12
8.7112411274622783
 22
13.34157435321114
 32
0.0
 13
8.7112411274622783
 23
13.34157435321114
 33
0.0
  0
SOLID
  5
39E
  8
0
 62
     0
 10
9.3616361059108453
 20
12.93154377487102
 30
0.0
 11
9.3309944409223302
 21
12.87995803685428
 31
0.0
 12
9.5010724874668071
 22
12.81382591089711
 32
0.0
 13
9.5010724874668071
 23
12.81382591089711
 33
0.0
  0
INSERT
  5
39F
  8
0
  2
*U45
 10
0.0
 20
0.0
 30
0.0
  0
POINT
  5
3A0
  8
DEFPOINTS
 62
     0
 10
9.2302007210996511
 20
12.978194933719831
 30
0.0
  0
POINT
  5
3A1
  8
DEFPOINTS
 62
     0
 10
11.04884943885712
 20
15.4946542294878
 30
0.0
  0
POINT
  5
3A2
  8
DEFPOINTS
 62
     0
 10
13.132099438857701
 20
19.102949074354811
 30
0.0
  0
POINT
  5
3A3
  8
DEFPOINTS
 62
     0
 10
10.595694944892291
 20
15.79744238203223
 30
0.0
  0
POINT
  5
3A4
  8
DEFPOINTS
 62
     0
 10
13.132099438857701
 20
19.102949074354811
 30
0.0
  0
ENDBLK
  5
308
  8
0
  0
BLOCK
  8
0
  2
*D13
 70
     1
 10
0.0
 20
0.0
 30
0.0
  3
*D13
  1

  0
LINE
  5
5F8
  8
0
 62
     0
 10
23.861807675173431
 20
19.339182425893931
 30
0.0
 11
23.231086603188281
 21
18.00563476201847
 31
0.0
  0
LINE
  5
5F9
  8
0
 62
     0
 10
24.311261485358092
 20
19.226600107234379
 30
0.0
 11
24.238877793461761
 21
17.753196210259361
 31
0.0
  0
ARC
  5
5FA
  8
0
 62
     0
 10
24.369529348621811
 20
20.412669711477999
 30
0.0
 40
2.4826808168742001
 50
240.5325154253762
 51
244.6875000000033
  0
LINE
  5
5FB
  8
0
 62
     0
 10
23.148225284365662
 20
18.251160881723521
 30
0.0
 11
22.968225284365658
 21
18.251160881723521
 31
0.0
  0
ARC
  5
5FC
  8
0
 62
     0
 10
24.369529348621811
 20
20.412669711477999
 30
0.0
 40
2.4826808168742001
 50
248.84248457463039
 51
263.0325154253772
  0
SOLID
  5
5FD
  8
0
 62
     0
 10
23.46161242164456
 20
18.069775383739142
 30
0.0
 11
23.485282627299188
 21
18.12490905189452
 31
0.0
 12
23.308046520005721
 22
18.168352834780691
 32
0.0
 13
23.308046520005721
 23
18.168352834780691
 33
0.0
  0
SOLID
  5
5FE
  8
0
 62
     0
 10
24.07092242552033
 20
17.978213919071099
 30
0.0
 11
24.065807851960951
 21
17.918432307037762
 31
0.0
 12
24.247709974840681
 22
17.932979392376289
 32
0.0
 13
24.247709974840681
 23
17.932979392376289
 33
0.0
  0
INSERT
  5
5FF
  8
0
  2
*U54
 10
0.0
 20
0.0
 30
0.0
  0
POINT
  5
600
  8
DEFPOINTS
 62
     0
 10
23.925087621233448
 20
17.970094105804499
 30
0.0
  0
POINT
  5
601
  8
DEFPOINTS
 62
     0
 10
24.369529348621811
 20
20.412669711477999
 30
0.0
  0
POINT
  5
602
  8
DEFPOINTS
 62
     0
 10
23.88852986851283
 20
19.39568175671414
 30
0.0
  0
POINT
  5
603
  8
DEFPOINTS
 62
     0
 10
24.369529348621811
 20
20.412669711477999
 30
0.0
  0
POINT
  5
604
  8
DEFPOINTS
 62
     0
 10
24.314328215003549
 20
19.28902482324721
 30
0.0
  0
ENDBLK
  5
5E9
  8
0
  0
BLOCK
  8
0
  2
*D16
 70
     1
 10
0.0
 20
0.0
 30
0.0
  3
*D16
  1

  0
LINE
  5
711
  8
0
 62
     0
 10
31.185169794023491
 20
17.14515288372548
 30
0.0
 11
30.55875817022768
 21
16.22341616999973
 31
0.0
  0
LINE
  5
712
  8
0
 62
     0
 10
31.50064525289314
 20
16.984410108740452
 30
0.0
 11
31.123140101481422
 21
15.93584921279113
 31
0.0
  0
ARC
  5
713
  8
0
 62
     0
 10
31.979112565239689
 20
18.313404194888388
 30
0.0
 40
2.3469460919473319
 50
231.4045987995604
 51
235.7999999999999
  0
LINE
  5
714
  8
0
 62
     0
 10
30.515048008107701
 20
16.479100258498139
 30
0.0
 11
30.335048008107702
 21
16.479100258498139
 31
0.0
  0
ARC
  5
715
  8
0
 62
     0
 10
31.979112565239689
 20
18.313404194888388
 30
0.0
 40
2.3469460919473319
 50
240.19540120043939
 51
245.80459879955919
  0
SOLID
  5
716
  8
0
 62
     0
 10
30.796679408474809
 20
16.251458274912199
 30
0.0
 11
30.828476606340111
 21
16.302339884634328
 31
0.0
 12
30.659933178241062
 22
16.37229067336915
 32
0.0
 13
30.659933178241062
 23
16.37229067336915
 33
0.0
  0
SOLID
  5
717
  8
0
 62
     0
 10
31.028454208861749
 20
16.200446206820679
 30
0.0
 11
31.005980045864831
 21
16.144814273566581
 31
0.0
 12
31.184112927125579
 22
16.10520775120289
 32
0.0
 13
31.184112927125579
 23
16.10520775120289
 33
0.0
  0
INSERT
  5
718
  8
0
  2
*U59
 10
0.0
 20
0.0
 30
0.0
  0
POINT
  5
719
  8
DEFPOINTS
 62
     0
 10
31.002123986691359
 20
16.179476062102989
 30
0.0
  0
POINT
  5
71A
  8
DEFPOINTS
 62
     0
 10
31.979112565239689
 20
18.313404194888388
 30
0.0
  0
POINT
  5
71B
  8
DEFPOINTS
 62
     0
 10
31.521816372908479
 20
17.043215156800091
 30
0.0
  0
POINT
  5
71C
  8
DEFPOINTS
 62
     0
 10
31.979112565239689
 20
18.313404194888388
 30
0.0
  0
POINT
  5
71D
  8
DEFPOINTS
 62
     0
 10
31.22030000513924
 20
17.196845419617642
 30
0.0
  0
ENDBLK
  5
702
  8
0
  0
BLOCK
  8
0
  2
*D19
 70
     1
 10
0.0
 20
0.0
 30
0.0
  3
*D19
  1

  0
LINE
  5
827
  8
0
 62
     0
 10
38.926327377127251
 20
17.643322312238809
 30
0.0
 11
37.978097833449048
 21
17.06224650053522
 31
0.0
  0
LINE
  5
828
  8
0
 62
     0
 10
39.103990424632421
 20
17.411787320913788
 30
0.0
 11
38.297294426043258
 21
16.646261402141992
 31
0.0
  0
ARC
  5
829
  8
0
 62
     0
 10
40.116613046565568
 20
18.372730308582302
 30
0.0
 40
2.328109871573496
 50
207.0690189204345
 51
211.5000000000008
  0
LINE
  5
82A
  8
0
 62
     0
 10
38.043526664158392
 20
17.313292521264991
 30
0.0
 11
37.863526664158378
 21
17.313292521264991
 31
0.0
  0
ARC
  5
82B
  8
0
 62
     0
 10
40.116613046565568
 20
18.372730308582302
 30
0.0
 40
2.328109871573496
 50
215.930981079567
 51
219.06901892043439
  0
SOLID
  5
82C
  8
0
 62
     0
 10
38.206531420837642
 20
16.989919427107001
 30
0.0
 11
38.25643966584618
 21
17.023223587210051
 31
0.0
 12
38.131573063032782
 22
17.156296242184101
 32
0.0
 13
38.131573063032782
 23
17.156296242184101
 33
0.0
  0
SOLID
  5
82D
  8
0
 62
     0
 10
38.331641353518542
 20
16.92521883975494
 30
0.0
 11
38.286554800836292
 21
16.885630927872249
 31
0.0
 12
38.427861812825483
 22
16.770165225766871
 32
0.0
 13
38.427861812825483
 23
16.770165225766871
 33
0.0
  0
INSERT
  5
82E
  8
0
  2
*U63
 10
0.0
 20
0.0
 30
0.0
  0
POINT
  5
82F
  8
DEFPOINTS
 62
     0
 10
38.320186236831859
 20
16.891870324860719
 30
0.0
  0
POINT
  5
830
  8
DEFPOINTS
 62
     0
 10
39.149326322820691
 20
17.45480948189466
 30
0.0
  0
POINT
  5
831
  8
DEFPOINTS
 62
     0
 10
40.116613046565568
 20
18.372730308582302
 30
0.0
  0
POINT
  5
832
  8
DEFPOINTS
 62
     0
 10
38.979617387399387
 20
17.675978472533551
 30
0.0
  0
POINT
  5
833
  8
DEFPOINTS
 62
     0
 10
40.116613046565568
 20
18.372730308582302
 30
0.0
  0
ENDBLK
  5
818
  8
0
  0
BLOCK
  8
0
  2
*D22
 70
     1
 10
0.0
 20
0.0
 30
0.0
  3
*D22
  1

  0
LINE
  5
942
  8
0
 62
     0
 10
45.358151601080237
 20
17.84941256073645
 30
0.0
 11
45.076515025925197
 21
17.404659807117358
 31
0.0
  0
LINE
  5
943
  8
0
 62
     0
 10
45.555142007351378
 20
17.75025592295329
 30
0.0
 11
45.36568395793725
 21
17.25910439864635
 31
0.0
  0
ARC
  5
944
  8
0
 62
     0
 10
45.960023923453143
 20
18.799872821642211
 30
0.0
 40
1.471425846930638
 50
223.60302733963101
 51
237.6562499999994
  0
LINE
  5
945
  8
0
 62
     0
 10
44.894512345419443
 20
17.78509250054227
 30
0.0
 11
44.71451234541945
 21
17.78509250054227
 31
0.0
  0
ARC
  5
946
  8
0
 62
     0
 10
45.960023923453143
 20
18.799872821642211
 30
0.0
 40
1.471425846930638
 50
223.6294721045596
 51
230.6428610522795
  0
ARC
  5
947
  8
0
 62
     0
 10
45.960023923453143
 20
18.799872821642211
 30
0.0
 40
1.471425846930638
 50
255.91963894772141
 51
262.93302789544123
  0
SOLID
  5
948
  8
0
 62
     0
 10
45.044486014204949
 20
17.686470778525859
 30
0.0
 11
45.009345722600557
 21
17.637837868825152
 31
0.0
 12
45.172814597504882
 22
17.5567334488623
 32
0.0
 13
45.172814597504882
 23
17.5567334488623
 33
0.0
  0
SOLID
  5
949
  8
0
 62
     0
 10
45.59298704055076
 20
17.34405751751391
 30
0.0
 11
45.611116312631779
 21
17.401253054873148
 31
0.0
 12
45.430465064513548
 22
17.427043102436599
 32
0.0
 13
45.430465064513548
 23
17.427043102436599
 33
0.0
  0
INSERT
  5
94A
  8
0
  2
*U66
 10
0.0
 20
0.0
 30
0.0
  0
POINT
  5
94B
  8
DEFPOINTS
 62
     0
 10
45.341811531144032
 20
17.464617242731951
 30
0.0
  0
POINT
  5
94C
  8
DEFPOINTS
 62
     0
 10
45.577635447134803
 20
17.808567972880461
 30
0.0
  0
POINT
  5
94D
  8
DEFPOINTS
 62
     0
 10
45.960023923453143
 20
18.799872821642211
 30
0.0
  0
POINT
  5
94E
  8
DEFPOINTS
 62
     0
 10
45.391588952323183
 20
17.90221590856456
 30
0.0
  0
POINT
  5
94F
  8
DEFPOINTS
 62
     0
 10
45.960023923453143
 20
18.799872821642211
 30
0.0
  0
ENDBLK
  5
932
  8
0
  0
BLOCK
  8
0
  2
*D25
 70
     1
 10
0.0
 20
0.0
 30
0.0
  3
*D25
  1

  0
LINE
  5
F1E
  8
0
 62
     0
 10
50.885226890348662
 20
17.81650793976921
 30
0.0
 11
50.416474158268549
 21
17.076266484111979
 31
0.0
  0
LINE
  5
F1F
  8
0
 62
     0
 10
51.045007997657471
 20
17.736080889122871
 30
0.0
 11
50.729676161838412
 21
16.91861384402252
 31
0.0
  0
ARC
  5
F20
  8
0
 62
     0
 10
51.373412218495531
 20
18.587436818059299
 30
0.0
 40
1.6086772289357929
 50
224.80732950695361
 51
237.6562499999971
  0
LINE
  5
F21
  8
0
 62
     0
 10
50.232086947247069
 20
17.453761797559078
 30
0.0
 11
50.052086947247062
 21
17.453761797559089
 31
0.0
  0
ARC
  5
F22
  8
0
 62
     0
 10
51.373412218495531
 20
18.587436818059299
 30
0.0
 40
1.6086772289357929
 50
224.8275385246717
 51
231.24189426233451
  0
ARC
  5
F23
  8
0
 62
     0
 10
51.373412218495531
 20
18.587436818059299
 30
0.0
 40
1.6086772289357929
 50
255.3206057376637
 51
261.73496147532637
  0
SOLID
  5
F24
  8
0
 62
     0
 10
50.383768694572041
 20
17.357404841691221
 30
0.0
 11
50.348883112965041
 21
17.308588899664649
 31
0.0
 12
50.512773729848242
 22
17.228340125856921
 32
0.0
 13
50.512773729848242
 23
17.228340125856921
 33
0.0
  0
SOLID
  5
F25
  8
0
 62
     0
 10
50.956543214419327
 20
17.002718508736809
 30
0.0
 11
50.974971230011278
 21
17.059818493337009
 31
0.0
 12
50.79445726841471
 22
17.086552547812779
 32
0.0
 13
50.79445726841471
 23
17.086552547812779
 33
0.0
  0
INSERT
  5
F26
  8
0
  2
*U69
 10
0.0
 20
0.0
 30
0.0
  0
POINT
  5
F27
  8
DEFPOINTS
 62
     0
 10
50.697534327517772
 20
17.127631521663929
 30
0.0
  0
POINT
  5
F28
  8
DEFPOINTS
 62
     0
 10
51.06750143744091
 20
17.794392939050041
 30
0.0
  0
POINT
  5
F29
  8
DEFPOINTS
 62
     0
 10
51.373412218495531
 20
18.587436818059299
 30
0.0
  0
POINT
  5
F2A
  8
DEFPOINTS
 62
     0
 10
50.918664241591607
 20
17.869311287597309
 30
0.0
  0
POINT
  5
F2B
  8
DEFPOINTS
 62
     0
 10
51.373412218495531
 20
18.587436818059299
 30
0.0
  0
ENDBLK
  5
F0E
  8
0
  0
BLOCK
  8
0
  2
*D28
 70
     1
 10
0.0
 20
0.0
 30
0.0
  3
*D28
  1

  0
LINE
  5
1013
  8
0
 62
     0
 10
57.003618895055382
 20
17.54987979367619
 30
0.0
 11
56.253444275854541
 21
16.576922557697539
 31
0.0
  0
LINE
  5
1014
  8
0
 62
     0
 10
57.121179678922083
 20
17.469327435211898
 30
0.0
 11
56.484658647467462
 21
16.418495041891131
 31
0.0
  0
ARC
  5
1015
  8
0
 62
     0
 10
57.7795831036563
 20
18.556285465495641
 30
0.0
 40
2.3193953753840422
 50
223.46487545295531
 51
232.36686856658909
  0
LINE
  5
1016
  8
0
 62
     0
 10
56.096174700840351
 20
16.96075074112219
 30
0.0
 11
55.916174700840351
 21
16.96075074112219
 31
0.0
  0
ARC
  5
1017
  8
0
 62
     0
 10
57.7795831036563
 20
18.55628546549563
 30
0.0
 40
2.3193953753840422
 50
223.47159330067751
 51
227.91923093363329
  0
ARC
  5
1018
  8
0
 62
     0
 10
57.7795831036563
 20
18.55628546549563
 30
0.0
 40
2.3193953753840422
 50
243.24307762811651
 51
247.6907152610724
  0
SOLID
  5
1019
  8
0
 62
     0
 10
56.244402602778663
 20
16.85785771527916
 30
0.0
 11
56.205950220772067
 21
16.81179890159471
 31
0.0
 12
56.363352852828719
 22
16.719471162417161
 32
0.0
 13
56.363352852828719
 23
16.719471162417161
 33
0.0
  0
SOLID
  5
101A
  8
0
 62
     0
 10
56.720841165308009
 20
16.458996899344591
 30
0.0
 11
56.749912101741693
 21
16.51148385634221
 31
0.0
 12
56.577915762532022
 22
16.572453187144429
 32
0.0
 13
56.577915762532022
 23
16.572453187144429
 33
0.0
  0
INSERT
  5
101B
  8
0
  2
*U72
 10
0.0
 20
0.0
 30
0.0
  0
POINT
  5
101C
  8
DEFPOINTS
 62
     0
 10
56.504578224618129
 20
16.618772248564792
 30
0.0
  0
POINT
  5
101D
  8
DEFPOINTS
 62
     0
 10
57.7795831036563
 20
18.556285465495641
 30
0.0
  0
POINT
  5
101E
  8
DEFPOINTS
 62
     0
 10
57.153560621652822
 20
17.522785124535972
 30
0.0
  0
POINT
  5
101F
  8
DEFPOINTS
 62
     0
 10
57.7795831036563
 20
18.556285465495641
 30
0.0
  0
POINT
  5
1020
  8
DEFPOINTS
 62
     0
 10
57.041781595393637
 20
17.599375836981611
 30
0.0
  0
ENDBLK
  5
1003
  8
0
  0
BLOCK
  8
0
  2
*D31
 70
     1
 10
0.0
 20
0.0
 30
0.0
  3
*D31
  1

  0
LINE
  5
11E7
  8
0
 62
     0
 10
63.48103692259965
 20
18.448617329466401
 30
0.0
 11
63.239671843863348
 21
18.060470709378158
 31
0.0
  0
LINE
  5
11E8
  8
0
 62
     0
 10
63.592557230922338
 20
18.398088135143961
 30
0.0
 11
63.459876205377618
 21
17.960697411214291
 31
0.0
  0
ARC
  5
11E9
  8
0
 62
     0
 10
63.728700744554729
 20
18.846893152602419
 30
0.0
 40
0.7460720948815226
 50
210.2027441403954
 51
238.12499999999889
  0
LINE
  5
11EA
  8
0
 62
     0
 10
63.083907407452656
 20
18.471573124906492
 30
0.0
 11
62.903907407452657
 21
18.471573124906481
 31
0.0
  0
ARC
  5
11EB
  8
0
 62
     0
 10
63.728700744554729
 20
18.846893152602419
 30
0.0
 40
0.7460720948815226
 50
210.41073833447859
 51
224.2678691672387
  0
ARC
  5
11EC
  8
0
 62
     0
 10
63.728700744554729
 20
18.846893152602419
 30
0.0
 40
0.7460720948815226
 50
266.98213083275601
 51
280.83926166551612
  0
SOLID
  5
11ED
  8
0
 62
     0
 10
63.213249811417263
 20
18.349503486440479
 30
0.0
 11
63.175650672997691
 21
18.302745548182831
 31
0.0
 12
63.33472405698042
 22
18.21332710205294
 32
0.0
 13
63.33472405698042
 23
18.21332710205294
 33
0.0
  0
SOLID
  5
11EE
  8
0
 62
     0
 10
63.684240164629607
 20
18.072306647505979
 30
0.0
 11
63.694603809359052
 21
18.1314048274096
 31
0.0
 12
63.512127447283433
 22
18.132946671646099
 32
0.0
 13
63.512127447283433
 23
18.132946671646099
 33
0.0
  0
INSERT
  5
11EF
  8
0
  2
*U83
 10
0.0
 20
0.0
 30
0.0
  0
POINT
  5
11F0
  8
DEFPOINTS
 62
     0
 10
63.450727038235001
 20
18.154539060135441
 30
0.0
  0
POINT
  5
11F1
  8
DEFPOINTS
 62
     0
 10
63.61070002325075
 20
18.457896906127221
 30
0.0
  0
POINT
  5
11F2
  8
DEFPOINTS
 62
     0
 10
63.728700744554729
 20
18.846893152602419
 30
0.0
  0
POINT
  5
11F3
  8
DEFPOINTS
 62
     0
 10
63.514041163265311
 20
18.501692465811811
 30
0.0
  0
POINT
  5
11F4
  8
DEFPOINTS
 62
     0
 10
63.728700744554729
 20
18.846893152602419
 30
0.0
  0
ENDBLK
  5
10EC
  8
0
  0
BLOCK
  8
0
  2
*D32
 70
     1
 10
0.0
 20
0.0
 30
0.0
  3
*D32
  1

  0
LINE
  5
111B
  8
0
 62
     0
 10
63.679652761567517
 20
18.469897734374339
 30
0.0
 11
65.537980884918639
 21
17.906180061101391
 31
0.0
  0
LINE
  5
111C
  8
0
 62
     0
 10
63.788509515538003
 20
18.828750360274011
 30
0.0
 11
65.64683763888911
 21
18.26503268700106
 31
0.0
  0
LINE
  5
111D
  8
0
 62
     0
 10
65.313480382581034
 20
17.786182042575408
 30
0.0
 11
65.261229140675212
 21
17.61393278214361
 31
0.0
  0
LINE
  5
111E
  8
0
 62
     0
 10
65.526839620363134
 20
18.489533189338669
 30
0.0
 11
65.579090862268956
 21
18.66178244977047
 31
0.0
  0
LINE
  5
111F
  8
0
 62
     0
 10
65.579090862268956
 20
18.66178244977047
 30
0.0
 11
65.759090862268948
 21
18.66178244977047
 31
0.0
  0
SOLID
  5
1120
  8
0
 62
     0
 10
65.284772172509065
 20
17.79489058289305
 30
0.0
 11
65.342188592653002
 21
17.777473502257781
 31
0.0
 12
65.365731624486841
 22
17.958431303007199
 32
0.0
 13
65.365731624486841
 23
17.958431303007199
 33
0.0
  0
SOLID
  5
1121
  8
0
 62
     0
 10
65.498131410291165
 20
18.498241729656311
 30
0.0
 11
65.555547830435103
 21
18.480824649021041
 31
0.0
 12
65.474588378457327
 22
18.317283928906878
 32
0.0
 13
65.474588378457327
 23
18.317283928906878
 33
0.0
  0
INSERT
  5
1122
  8
0
  2
*U75
 10
0.0
 20
0.0
 30
0.0
  0
POINT
  5
1123
  8
DEFPOINTS
 62
     0
 10
63.619843990584258
 20
18.488040526702751
 30
0.0
  0
POINT
  5
1124
  8
DEFPOINTS
 62
     0
 10
63.72870074455475
 20
18.846893152602419
 30
0.0
  0
POINT
  5
1125
  8
DEFPOINTS
 62
     0
 10
65.474588378457327
 20
18.317283928906878
 30
0.0
  0
ENDBLK
  5
110E
  8
0
  0
BLOCK
  8
0
  2
*D33
 70
     1
 10
0.0
 20
0.0
 30
0.0
  3
*D33
  1

  0
LINE
  5
1137
  8
0
 62
     0
 10
57.116719070018469
 20
17.594210020385209
 30
0.0
 11
59.091287122017341
 21
16.071768147588561
 31
0.0
  0
LINE
  5
1138
  8
0
 62
     0
 10
57.829079146961739
 20
18.518122765157379
 30
0.0
 11
59.803647198960611
 21
16.995680892360731
 31
0.0
  0
LINE
  5
1139
  8
0
 62
     0
 10
59.058647094271912
 20
16.32422532928236
 30
0.0
 11
59.551190017266812
 21
16.963040864615291
 31
0.0
  0
LINE
  5
113A
  8
0
 62
     0
 10
59.661098594240997
 20
17.105589469334909
 30
0.0
 11
59.771007171215189
 21
17.24813807405453
 31
0.0
  0
LINE
  5
113B
  8
0
 62
     0
 10
59.771007171215189
 20
17.24813807405453
 30
0.0
 11
59.951007171215181
 21
17.24813807405453
 31
0.0
  0
SOLID
  5
113C
  8
0
 62
     0
 10
59.03488899348531
 20
16.342543425444731
 30
0.0
 11
59.082405195058513
 21
16.305907233119999
 31
0.0
 12
58.948738517297727
 22
16.181676724562749
 32
0.0
 13
58.948738517297727
 23
16.181676724562749
 33
0.0
  0
SOLID
  5
113D
  8
0
 62
     0
 10
59.527431916480211
 20
16.981358960777658
 30
0.0
 11
59.574948118053413
 21
16.94472276845293
 31
0.0
 12
59.661098594240997
 22
17.105589469334909
 32
0.0
 13
59.661098594240997
 23
17.105589469334909
 33
0.0
  0
INSERT
  5
113E
  8
0
  2
*U76
 10
0.0
 20
0.0
 30
0.0
  0
POINT
  5
113F
  8
DEFPOINTS
 62
     0
 10
57.067223026713052
 20
17.63237272072347
 30
0.0
  0
POINT
  5
1140
  8
DEFPOINTS
 62
     0
 10
57.779583103656321
 20
18.556285465495641
 30
0.0
  0
POINT
  5
1141
  8
DEFPOINTS
 62
     0
 10
59.661098594240997
 20
17.105589469334909
 30
0.0
  0
ENDBLK
  5
112A
  8
0
  0
BLOCK
  8
0
  2
*D34
 70
     1
 10
0.0
 20
0.0
 30
0.0
  3
*D34
  1

  0
LINE
  5
1153
  8
0
 62
     0
 10
51.14380823919474
 20
17.818549139208109
 30
0.0
 11
52.624016616249321
 21
17.247569761227119
 31
0.0
  0
LINE
  5
1154
  8
0
 62
     0
 10
51.431724268422691
 20
18.564943378275871
 30
0.0
 11
52.911932645477279
 21
17.993964000294881
 31
0.0
  0
LINE
  5
1155
  8
0
 62
     0
 10
52.520859019035349
 20
17.480289571593659
 30
0.0
 11
52.679212835110718
 21
17.890806403080909
 31
0.0
  0
LINE
  5
1156
  8
0
 62
     0
 10
52.743993941687023
 20
18.058745106871172
 30
0.0
 11
52.808775048263321
 21
18.226683810661431
 31
0.0
  0
LINE
  5
1157
  8
0
 62
     0
 10
52.808775048263321
 20
18.226683810661431
 30
0.0
 11
52.988775048263307
 21
18.226683810661431
 31
0.0
  0
SOLID
  5
1158
  8
0
 62
     0
 10
52.492869235070309
 20
17.491086422689708
 30
0.0
 11
52.548848803000389
 21
17.469492720497609
 31
0.0
 12
52.456077912459058
 22
17.31235086780341
 32
0.0
 13
52.456077912459058
 23
17.31235086780341
 33
0.0
  0
SOLID
  5
1159
  8
0
 62
     0
 10
52.651223051145678
 20
17.901603254176958
 30
0.0
 11
52.707202619075773
 21
17.88000955198487
 31
0.0
 12
52.743993941687023
 22
18.058745106871172
 32
0.0
 13
52.743993941687023
 23
18.058745106871172
 33
0.0
  0
INSERT
  5
115A
  8
0
  2
*U77
 10
0.0
 20
0.0
 30
0.0
  0
POINT
  5
115B
  8
DEFPOINTS
 62
     0
 10
51.085496189267573
 20
17.841042578991551
 30
0.0
  0
POINT
  5
115C
  8
DEFPOINTS
 62
     0
 10
51.373412218495531
 20
18.587436818059309
 30
0.0
  0
POINT
  5
115D
  8
DEFPOINTS
 62
     0
 10
52.743993941687023
 20
18.058745106871172
 30
0.0
  0
ENDBLK
  5
1146
  8
0
  0
BLOCK
  8
0
  2
*D35
 70
     1
 10
0.0
 20
0.0
 30
0.0
  3
*D35
  1

  0
LINE
  5
116E
  8
0
 62
     0
 10
45.658440936845338
 20
17.844386583024029
 30
0.0
 11
47.321904601584109
 21
17.202717840088962
 31
0.0
  0
LINE
  5
116F
  8
0
 62
     0
 10
46.01833597338031
 20
18.777379381858768
 30
0.0
 11
47.681799638119081
 21
18.135710638923712
 31
0.0
  0
LINE
  5
1170
  8
0
 62
     0
 10
47.218747004370137
 20
17.435437650455508
 30
0.0
 11
47.26447975413253
 21
17.55399534608264
 31
0.0
  0
LINE
  5
1171
  8
0
 62
     0
 10
47.44907982775252
 20
18.03255304170975
 30
0.0
 11
47.403347077990126
 21
17.91399534608264
 31
0.0
  0
SOLID
  5
1172
  8
0
 62
     0
 10
47.190757220405096
 20
17.446234501551562
 30
0.0
 11
47.246736788335177
 21
17.424640799359459
 31
0.0
 12
47.153965897793853
 22
17.26749894666526
 32
0.0
 13
47.153965897793853
 23
17.26749894666526
 33
0.0
  0
SOLID
  5
1173
  8
0
 62
     0
 10
47.421090043787487
 20
18.0433498928058
 30
0.0
 11
47.477069611717567
 21
18.021756190613701
 31
0.0
 12
47.513860934328818
 22
18.200491745499999
 32
0.0
 13
47.513860934328818
 23
18.200491745499999
 33
0.0
  0
INSERT
  5
1174
  8
0
  2
*U78
 10
0.0
 20
0.0
 30
0.0
  0
POINT
  5
1175
  8
DEFPOINTS
 62
     0
 10
45.600128886918171
 20
17.866880022807461
 30
0.0
  0
POINT
  5
1176
  8
DEFPOINTS
 62
     0
 10
45.960023923453143
 20
18.7998728216422
 30
0.0
  0
POINT
  5
1177
  8
DEFPOINTS
 62
     0
 10
47.513860934328818
 20
18.200491745499999
 30
0.0
  0
ENDBLK
  5
1162
  8
0
  0
BLOCK
  8
0
  2
*D36
 70
     1
 10
0.0
 20
0.0
 30
0.0
  3
*D36
  1

  0
LINE
  5
1189
  8
0
 62
     0
 10
39.252917243781091
 20
17.466951190776829
 30
0.0
 11
40.676583105311728
 21
15.966720400854861
 31
0.0
  0
LINE
  5
118A
  8
0
 62
     0
 10
40.159635207546437
 20
18.327394410394032
 30
0.0
 11
41.583301069077073
 21
16.827163620472071
 31
0.0
  0
LINE
  5
118B
  8
0
 62
     0
 10
40.683246668469067
 20
16.221191611261951
 30
0.0
 11
41.328829858669991
 21
16.833827183629399
 31
0.0
  0
LINE
  5
118C
  8
0
 62
     0
 10
41.459397245452209
 20
16.957731007254282
 30
0.0
 11
41.589964632234413
 21
17.08163483087915
 31
0.0
  0
LINE
  5
118D
  8
0
 62
     0
 10
41.589964632234413
 20
17.08163483087915
 30
0.0
 11
41.769964632234412
 21
17.08163483087916
 31
0.0
  0
SOLID
  5
118E
  8
0
 62
     0
 10
40.662596031198248
 20
16.24295284239232
 30
0.0
 11
40.703897305739879
 21
16.199430380131581
 31
0.0
 12
40.552679281686849
 22
16.097287787637079
 32
0.0
 13
40.552679281686849
 23
16.097287787637079
 33
0.0
  0
SOLID
  5
118F
  8
0
 62
     0
 10
41.308179221399179
 20
16.855588414759769
 30
0.0
 11
41.34948049594081
 21
16.812065952499029
 31
0.0
 12
41.459397245452209
 22
16.957731007254282
 32
0.0
 13
41.459397245452209
 23
16.957731007254282
 33
0.0
  0
INSERT
  5
1190
  8
0
  2
*U79
 10
0.0
 20
0.0
 30
0.0
  0
POINT
  5
1191
  8
DEFPOINTS
 62
     0
 10
39.20989508280023
 20
17.512287088965099
 30
0.0
  0
POINT
  5
1192
  8
DEFPOINTS
 62
     0
 10
40.116613046565568
 20
18.372730308582302
 30
0.0
  0
POINT
  5
1193
  8
DEFPOINTS
 62
     0
 10
41.459397245452209
 20
16.957731007254282
 30
0.0
  0
ENDBLK
  5
117C
  8
0
  0
BLOCK
  8
0
  2
*D37
 70
     1
 10
0.0
 20
0.0
 30
0.0
  3
*D37
  1

  0
LINE
  5
11A4
  8
0
 62
     0
 10
31.61449521299259
 20
17.116132113680031
 30
0.0
 11
33.844644899958482
 21
16.31322882165269
 31
0.0
  0
LINE
  5
11A5
  8
0
 62
     0
 10
32.037917613299321
 20
18.29223307487306
 30
0.0
 11
34.268067300265209
 21
17.489329782845711
 31
0.0
  0
LINE
  5
11A6
  8
0
 62
     0
 10
33.736259187190882
 20
16.543560185708611
 30
0.0
 11
33.822193574142837
 21
16.782252127893351
 31
0.0
  0
LINE
  5
11A7
  8
0
 62
     0
 10
34.037735936209288
 20
17.380944070078101
 30
0.0
 11
33.951801549257318
 21
17.142252127893361
 31
0.0
  0
SOLID
  5
11A8
  8
0
 62
     0
 10
33.708032764122251
 20
16.553722323315959
 30
0.0
 11
33.764485610259499
 21
16.533398048101251
 31
0.0
 12
33.675286361546718
 22
16.37420164729685
 32
0.0
 13
33.675286361546718
 23
16.37420164729685
 33
0.0
  0
SOLID
  5
11A9
  8
0
 62
     0
 10
34.009509513140657
 20
17.391106207685471
 30
0.0
 11
34.065962359277918
 21
17.370781932470749
 31
0.0
 12
34.098708761853437
 22
17.550302608489869
 32
0.0
 13
34.098708761853437
 23
17.550302608489869
 33
0.0
  0
INSERT
  5
11AA
  8
0
  2
*U80
 10
0.0
 20
0.0
 30
0.0
  0
POINT
  5
11AB
  8
DEFPOINTS
 62
     0
 10
31.555690164932951
 20
17.13730323369537
 30
0.0
  0
POINT
  5
11AC
  8
DEFPOINTS
 62
     0
 10
31.979112565239681
 20
18.313404194888388
 30
0.0
  0
POINT
  5
11AD
  8
DEFPOINTS
 62
     0
 10
34.098708761853437
 20
17.550302608489869
 30
0.0
  0
ENDBLK
  5
1198
  8
0
  0
BLOCK
  8
0
  2
*D38
 70
     1
 10
0.0
 20
0.0
 30
0.0
  3
*D38
  1

  0
LINE
  5
11BE
  8
0
 62
     0
 10
24.382886390307299
 20
19.41080752562738
 30
0.0
 11
26.779507457222241
 21
19.29306908251889
 31
0.0
  0
LINE
  5
11BF
  8
0
 62
     0
 10
24.431954064634638
 20
20.409602981832538
 30
0.0
 11
26.828575131549581
 21
20.291864538724049
 31
0.0
  0
LINE
  5
11C0
  8
0
 62
     0
 10
26.60855645648423
 20
19.481684446014739
 30
0.0
 11
26.61541527931049
 21
19.621298992000391
 31
0.0
  0
LINE
  5
11C1
  8
0
 62
     0
 10
26.639959768053728
 20
20.120913537986041
 30
0.0
 11
26.633100945227469
 21
19.98129899200039
 31
0.0
  0
SOLID
  5
11C2
  8
0
 62
     0
 10
26.578592592798071
 20
19.483156476244559
 30
0.0
 11
26.638520320170379
 21
19.480212415784919
 31
0.0
 12
26.599724275105309
 22
19.301901263897811
 32
0.0
 13
26.599724275105309
 23
19.301901263897811
 33
0.0
  0
SOLID
  5
11C3
  8
0
 62
     0
 10
26.60999590436758
 20
20.122385568215861
 30
0.0
 11
26.669923631739891
 21
20.119441507756211
 31
0.0
 12
26.648791949432649
 22
20.30069672010297
 32
0.0
 13
26.648791949432649
 23
20.30069672010297
 33
0.0
  0
INSERT
  5
11C4
  8
0
  2
*U81
 10
0.0
 20
0.0
 30
0.0
  0
POINT
  5
11C5
  8
DEFPOINTS
 62
     0
 10
24.320461674294471
 20
19.413874255272841
 30
0.0
  0
POINT
  5
11C6
  8
DEFPOINTS
 62
     0
 10
24.369529348621821
 20
20.412669711477999
 30
0.0
  0
POINT
  5
11C7
  8
DEFPOINTS
 62
     0
 10
26.648791949432649
 20
20.30069672010297
 30
0.0
  0
ENDBLK
  5
11B2
  8
0
  0
BLOCK
  8
0
  2
*D39
 70
     1
 10
0.0
 20
0.0
 30
0.0
  3
*D39
  1

  0
LINE
  5
11D9
  8
0
 62
     0
 10
11.186226026593451
 20
15.6075974592175
 30
0.0
 11
16.59778900254738
 21
12.483230118313839
 31
0.0
  0
LINE
  5
11DA
  8
0
 62
     0
 10
13.18622602659412
 20
19.071699074356371
 30
0.0
 11
18.597789002548051
 21
15.947331733452719
 31
0.0
  0
LINE
  5
11DB
  8
0
 62
     0
 10
16.531904429866181
 20
12.72911469099504
 30
0.0
 11
17.33798138141238
 21
14.125280925883279
 31
0.0
  0
LINE
  5
11DC
  8
0
 62
     0
 10
18.351904429866849
 20
15.88144716077152
 30
0.0
 11
17.54582747832065
 21
14.485280925883281
 31
0.0
  0
SOLID
  5
11DD
  8
0
 62
     0
 10
16.505923667752651
 20
12.74411469099504
 30
0.0
 11
16.557885191979711
 21
12.714114690995039
 31
0.0
 12
16.441904429866181
 22
12.573230118313839
 32
0.0
 13
16.441904429866181
 23
12.573230118313839
 33
0.0
  0
SOLID
  5
11DE
  8
0
 62
     0
 10
18.325923667753319
 20
15.896447160771521
 30
0.0
 11
18.377885191980379
 21
15.86644716077152
 31
0.0
 12
18.441904429866849
 22
16.03733173345271
 32
0.0
 13
18.441904429866849
 23
16.03733173345271
 33
0.0
  0
INSERT
  5
11DF
  8
0
  2
*U82
 10
0.0
 20
0.0
 30
0.0
  0
POINT
  5
11E0
  8
DEFPOINTS
 62
     0
 10
11.132099438856921
 20
15.6388474592175
 30
0.0
  0
POINT
  5
11E1
  8
DEFPOINTS
 62
     0
 10
13.13209943885759
 20
19.102949074356371
 30
0.0
  0
POINT
  5
11E2
  8
DEFPOINTS
 62
     0
 10
18.441904429866849
 20
16.03733173345271
 30
0.0
  0
ENDBLK
  5
11CD
  8
0
  0
BLOCK
  8
0
  2
*U42
 70
     1
 10
0.0
 20
0.0
 30
0.0
  3
*U42
  1

  0
TEXT
  5
15FA
  8
0
 62
     0
 10
9.3376952683464456
 20
11.859301685925841
 30
0.0
 40
0.18
  1
38°
  0
ENDBLK
  5
15FC
  8
0
  0
BLOCK
  8
0
  2
*U43
 70
     1
 10
0.0
 20
0.0
 30
0.0
  3
*U43
  1

  0
TEXT
  5
15FE
  8
0
 62
     0
 10
7.8053472300980209
 20
12.71098852974345
 30
0.0
 40
0.18
  1
128°
  0
ENDBLK
  5
1600
  8
0
  0
BLOCK
  8
0
  2
*U44
 70
     1
 10
0.0
 20
0.0
 30
0.0
  3
*U44
  1

  0
TEXT
  5
1602
  8
0
 62
     0
 10
7.8893990878058764
 20
12.66130432094271
 30
0.0
 40
0.18
  1
52°
  0
ENDBLK
  5
1604
  8
0
  0
BLOCK
  8
0
  2
*U45
 70
     1
 10
0.0
 20
0.0
 30
0.0
  3
*U45
  1

  0
TEXT
  5
1606
  8
0
 62
     0
 10
7.0698065023943597
 20
13.362912786970099
 30
0.0
 40
0.18
  1
7.500000°
  0
ENDBLK
  5
1608
  8
0
  0
BLOCK
  8
0
  2
*U46
 70
     1
 10
0.0
 20
0.0
 30
0.0
  3
*U46
  1

  0
TEXT
  5
160A
  8
0
 62
     0
 10
16.655923087292059
 20
14.15580307628727
 30
0.0
 40
0.18
  1
4.2290000
  0
ENDBLK
  5
160C
  8
0
  0
BLOCK
  8
0
  2
*U47
 70
     1
 10
0.0
 20
0.0
 30
0.0
  3
*U47
  1

  0
TEXT
  5
160E
  8
0
 62
     0
 10
4.6858119300646042
 20
10.488429276272569
 30
0.0
 40
0.18
  1
112.285218°
  0
ENDBLK
  5
1610
  8
0
  0
BLOCK
  8
0
  2
*U48
 70
     1
 10
0.0
 20
0.0
 30
0.0
  3
*U48
  1

  0
TEXT
  5
1612
  8
0
 62
     0
 10
12.20827973120975
 20
7.983209158546952
 30
0.0
 40
0.18
  1
22.285218°
  0
ENDBLK
  5
1614
  8
0
  0
BLOCK
  8
0
  2
*U49
 70
     1
 10
0.0
 20
0.0
 30
0.0
  3
*U49
  1

  0
TEXT
  5
1616
  8
0
 62
     0
 10
8.9951549698315691
 20
11.547723147264749
 30
0.0
 40
0.18
  1
60.000000°
  0
ENDBLK
  5
1618
  8
0
  0
BLOCK
  8
0
  2
*U50
 70
     1
 10
0.0
 20
0.0
 30
0.0
  3
*U50
  1

  0
TEXT
  5
161A
  8
0
 62
     0
 10
10.50029691372794
 20
7.6196704631977807
 30
0.0
 40
0.18
  1
30.000000°
  0
ENDBLK
  5
161C
  8
0
  0
BLOCK
  8
0
  2
*U51
 70
     1
 10
0.0
 20
0.0
 30
0.0
  3
*U51
  1

  0
TEXT
  5
161E
  8
0
 62
     0
 10
23.225139702519559
 20
19.100182225826039
 30
0.0
 40
0.18
  1
45.000000°
  0
ENDBLK
  5
1620
  8
0
  0
BLOCK
  8
0
  2
*U52
 70
     1
 10
0.0
 20
0.0
 30
0.0
  3
*U52
  1

  0
TEXT
  5
1622
  8
0
 62
     0
 10
23.225139702519559
 20
19.100182225826039
 30
0.0
 40
0.18
  1
45.000000°
  0
ENDBLK
  5
1624
  8
0
  0
BLOCK
  8
0
  2
*U53
 70
     1
 10
0.0
 20
0.0
 30
0.0
  3
*U53
  1

  0
TEXT
  5
1626
  8
0
 62
     0
 10
22.870078247836641
 20
15.082659956642679
 30
0.0
 40
0.18
  1
45.000000°
  0
ENDBLK
  5
1628
  8
0
  0
BLOCK
  8
0
  2
*U54
 70
     1
 10
0.0
 20
0.0
 30
0.0
  3
*U54
  1

  0
TEXT
  5
162A
  8
0
 62
     0
 10
21.468225284365669
 20
18.161160881723521
 30
0.0
 40
0.18
  1
22.500000°
  0
ENDBLK
  5
162C
  8
0
  0
BLOCK
  8
0
  2
*U55
 70
     1
 10
0.0
 20
0.0
 30
0.0
  3
*U55
  1

  0
TEXT
  5
162E
  8
0
 62
     0
 10
25.410069043600512
 20
19.678896791327471
 30
0.0
 40
0.18
  1
1.1250000
  0
ENDBLK
  5
1630
  8
0
  0
BLOCK
  8
0
  2
*U56
 70
     1
 10
0.0
 20
0.0
 30
0.0
  3
*U56
  1

  0
TEXT
  5
1632
  8
0
 10
0.3595521173541414
 20
0.1913127320982354
 30
0.0
 40
0.2
  1
6 pitch
  0
ENDBLK
  5
1634
  8
0
  0
BLOCK
  8
0
  2
*U57
 70
     1
 10
0.0
 20
0.0
 30
0.0
  3
*U57
  1

  0
TEXT
  5
1636
  8
0
 10
3.0667161882977751
 20
0.3459396467245695
 30
0.0
 40
0.2
  1
8 pitch
  0
ENDBLK
  5
1638
  8
0
  0
BLOCK
  8
0
  2
*U58
 70
     1
 10
0.0
 20
0.0
 30
0.0
  3
*U58
  1

  0
TEXT
  5
163A
  8
0
 62
     0
 10
29.849273847652139
 20
14.95778354470564
 30
0.0
 40
0.18
  1
43.200000°
  0
ENDBLK
  5
163C
  8
0
  0
BLOCK
  8
0
  2
*U59
 70
     1
 10
0.0
 20
0.0
 30
0.0
  3
*U59
  1

  0
TEXT
  5
163E
  8
0
 62
     0
 10
28.89504800810769
 20
16.389100258498139
 30
0.0
 40
0.18
  1
14.400000°
  0
ENDBLK
  5
1640
  8
0
  0
BLOCK
  8
0
  2
*U60
 70
     1
 10
0.0
 20
0.0
 30
0.0
  3
*U60
  1

  0
TEXT
  5
1642
  8
0
 62
     0
 10
33.250483414565501
 20
16.826856001249929
 30
0.0
 40
0.18
  1
1.3500000
  0
ENDBLK
  5
1644
  8
0
  0
BLOCK
  8
0
  2
*U61
 70
     1
 10
0.0
 20
0.0
 30
0.0
  3
*U61
  1

  0
TEXT
  5
1646
  8
0
 10
6.070563436895184
 20
0.4614173553202462
 30
0.0
 40
0.2
  1
pitch 10
  0
ENDBLK
  5
1648
  8
0
  0
BLOCK
  8
0
  2
*U62
 70
     1
 10
0.0
 20
0.0
 30
0.0
  3
*U62
  1

  0
TEXT
  5
164A
  8
0
 62
     0
 10
37.409076422325171
 20
15.21445076982539
 30
0.0
 40
0.18
  1
48.000000°
  0
ENDBLK
  5
164C
  8
0
  0
BLOCK
  8
0
  2
*U63
 70
     1
 10
0.0
 20
0.0
 30
0.0
  3
*U63
  1

  0
TEXT
  5
164E
  8
0
 62
     0
 10
36.453526664158382
 20
17.223292521264991
 30
0.0
 40
0.18
  1
12.000000°
  0
ENDBLK
  5
1650
  8
0
  0
BLOCK
  8
0
  2
*U64
 70
     1
 10
0.0
 20
0.0
 30
0.0
  3
*U64
  1

  0
TEXT
  5
1652
  8
0
 62
     0
 10
40.556734030892223
 20
16.170637205964521
 30
0.0
 40
0.18
  1
1.3335000
  0
ENDBLK
  5
1654
  8
0
  0
BLOCK
  8
0
  2
*U65
 70
     1
 10
0.0
 20
0.0
 30
0.0
  3
*U65
  1

  0
TEXT
  5
1656
  8
0
 62
     0
 10
45.135105775545533
 20
16.976561437726641
 30
0.0
 40
0.18
  1
56.250000°
  0
ENDBLK
  5
1658
  8
0
  0
BLOCK
  8
0
  2
*U66
 70
     1
 10
0.0
 20
0.0
 30
0.0
  3
*U66
  1

  0
TEXT
  5
165A
  8
0
 62
     0
 10
43.304512345419447
 20
17.695092500542259
 30
0.0
 40
0.18
  1
11.250000°
  0
ENDBLK
  5
165C
  8
0
  0
BLOCK
  8
0
  2
*U67
 70
     1
 10
0.0
 20
0.0
 30
0.0
  3
*U67
  1

  0
TEXT
  5
165E
  8
0
 62
     0
 10
46.871199657764862
 20
17.545971558349439
 30
0.0
 40
0.18
  1
1.0625000
  0
ENDBLK
  5
1660
  8
0
  0
BLOCK
  8
0
  2
*U68
 70
     1
 10
0.0
 20
0.0
 30
0.0
  3
*U68
  1

  0
TEXT
  5
1662
  8
0
 62
     0
 10
48.193807712071823
 20
16.710781038214112
 30
0.0
 40
0.18
  1
45.000000°
  0
ENDBLK
  5
1664
  8
0
  0
BLOCK
  8
0
  2
*U69
 70
     1
 10
0.0
 20
0.0
 30
0.0
  3
*U69
  1

  0
TEXT
  5
1666
  8
0
 62
     0
 10
48.642086947247073
 20
17.363761797559089
 30
0.0
 40
0.18
  1
11.250000°
  0
ENDBLK
  5
1668
  8
0
  0
BLOCK
  8
0
  2
*U70
 70
     1
 10
0.0
 20
0.0
 30
0.0
  3
*U70
  1

  0
TEXT
  5
166A
  8
0
 62
     0
 10
53.26542640151316
 20
18.064684438660851
 30
0.0
 40
0.18
  1
0.8500000
  0
ENDBLK
  5
166C
  8
0
  0
BLOCK
  8
0
  2
*U71
 70
     1
 10
0.0
 20
0.0
 30
0.0
  3
*U71
  1

  0
TEXT
  5
166E
  8
0
 62
     0
 10
54.464573026265462
 20
15.786745963231221
 30
0.0
 40
0.18
  1
45.000000°
  0
ENDBLK
  5
1670
  8
0
  0
BLOCK
  8
0
  2
*U72
 70
     1
 10
0.0
 20
0.0
 30
0.0
  3
*U72
  1

  0
TEXT
  5
1672
  8
0
 62
     0
 10
54.506174700840347
 20
16.87075074112218
 30
0.0
 40
0.18
  1
6.428571°
  0
ENDBLK
  5
1674
  8
0
  0
BLOCK
  8
0
  2
*U73
 70
     1
 10
0.0
 20
0.0
 30
0.0
  3
*U73
  1

  0
TEXT
  5
1676
  8
0
 62
     0
 10
58.958462766832398
 20
16.655155705008081
 30
0.0
 40
0.18
  1
1.2083158
  0
ENDBLK
  5
1678
  8
0
  0
BLOCK
  8
0
  2
*U74
 70
     1
 10
0.0
 20
0.0
 30
0.0
  3
*U74
  1

  0
TEXT
  5
167A
  8
0
 62
     0
 10
63.588295544428433
 20
17.85324983961209
 30
0.0
 40
0.18
  1
45.000000°
  0
ENDBLK
  5
167C
  8
0
  0
BLOCK
  8
0
  2
*U75
 70
     1
 10
0.0
 20
0.0
 30
0.0
  3
*U75
  1

  0
TEXT
  5
167E
  8
0
 62
     0
 10
65.849090862268952
 20
18.57178244977046
 30
0.0
 40
0.18
  1
0.3750000
  0
ENDBLK
  5
1680
  8
0
  0
BLOCK
  8
0
  2
*U76
 70
     1
 10
0.0
 20
0.0
 30
0.0
  3
*U76
  1

  0
TEXT
  5
1682
  8
0
 62
     0
 10
60.041007171215178
 20
17.15813807405452
 30
0.0
 40
0.18
  1
1.1666498
  0
ENDBLK
  5
1684
  8
0
  0
BLOCK
  8
0
  2
*U77
 70
     1
 10
0.0
 20
0.0
 30
0.0
  3
*U77
  1

  0
TEXT
  5
1686
  8
0
 62
     0
 10
53.078775048263317
 20
18.13668381066141
 30
0.0
 40
0.18
  1
0.8000000
  0
ENDBLK
  5
1688
  8
0
  0
BLOCK
  8
0
  2
*U78
 70
     1
 10
0.0
 20
0.0
 30
0.0
  3
*U78
  1

  0
TEXT
  5
168A
  8
0
 62
     0
 10
46.748913416061342
 20
17.64399534608264
 30
0.0
 40
0.18
  1
1.0000000
  0
ENDBLK
  5
168C
  8
0
  0
BLOCK
  8
0
  2
*U79
 70
     1
 10
0.0
 20
0.0
 30
0.0
  3
*U79
  1

  0
TEXT
  5
168E
  8
0
 62
     0
 10
41.859964632234423
 20
16.99163483087916
 30
0.0
 40
0.18
  1
1.2500000
  0
ENDBLK
  5
1690
  8
0
  0
BLOCK
  8
0
  2
*U80
 70
     1
 10
0.0
 20
0.0
 30
0.0
  3
*U80
  1

  0
TEXT
  5
1692
  8
0
 62
     0
 10
33.27199756170009
 20
16.872252127893361
 30
0.0
 40
0.18
  1
1.2500000
  0
ENDBLK
  5
1694
  8
0
  0
BLOCK
  8
0
  2
*U81
 70
     1
 10
0.0
 20
0.0
 30
0.0
  3
*U81
  1

  0
TEXT
  5
1696
  8
0
 62
     0
 10
26.039258112268978
 20
19.71129899200039
 30
0.0
 40
0.18
  1
1.0000000
  0
ENDBLK
  5
1698
  8
0
  0
BLOCK
  8
0
  2
*U82
 70
     1
 10
0.0
 20
0.0
 30
0.0
  3
*U82
  1

  0
TEXT
  5
169A
  8
0
 62
     0
 10
16.82690442986652
 20
14.215280925883279
 30
0.0
 40
0.18
  1
4.0000000
  0
ENDBLK
  5
169C
  8
0
  0
BLOCK
  8
0
  2
*U83
 70
     1
 10
0.0
 20
0.0
 30
0.0
  3
*U83
  1

  0
TEXT
  5
169E
  8
0
 62
     0
 10
61.493907407452667
 20
18.381573124906492
 30
0.0
 40
0.18
  1
15.000000°
  0
ENDBLK
  5
16A0
  8
0
  0
BLOCK
  8
0
  2
*U84
 70
     1
 10
0.0
 20
0.0
 30
0.0
  3
*U84
  1

  0
TEXT
  5
16A2
  8
0
 10
8.7691285980290843
 20
0.5880521598931267
 30
0.0
 40
0.2
  1
pitch 12
  0
ENDBLK
  5
16A4
  8
0
  0
BLOCK
  8
0
  2
*U85
 70
     1
 10
0.0
 20
0.0
 30
0.0
  3
*U85
  1

  0
TEXT
  5
16A6
  8
0
 10
0.7700191376096371
 20
2.3741403584505698
 30
0.0
 40
0.2
  1
pitch 16
  0
ENDBLK
  5
16A8
  8
0
  0
BLOCK
  8
0
  2
*U86
 70
     1
 10
0.0
 20
0.0
 30
0.0
  3
*U86
  1

  0
TEXT
  5
16AA
  8
0
 10
3.0579441165293129
 20
2.408862439318634
 30
0.0
 40
0.2
  1
pitch 20
  0
ENDBLK
  5
16AC
  8
0
  0
BLOCK
  8
0
  2
*U87
 70
     1
 10
0.0
 20
0.0
 30
0.0
  3
*U87
  1

  0
TEXT
  5
16AE
  8
0
 10
5.2596107647469523
 20
2.439774045135084
 30
0.0
 40
0.2
  1
pitch 24
  0
ENDBLK
  5
16B0
  8
0
  0
BLOCK
  8
0
  2
*U88
 70
     1
 10
0.0
 20
0.0
 30
0.0
  3
*U88
  1

  0
TEXT
  5
16B2
  8
0
 10
7.3756015716989083
 20
2.402891486328786
 30
0.0
 40
0.2
  1
pitch 32
  0
ENDBLK
  5
16B4
  8
0
  0
BLOCK
  8
0
  2
*U89
 70
     1
 10
0.0
 20
0.0
 30
0.0
  3
*U89
  1

  0
TEXT
  5
16B6
  8
0
 10
1.024971791128507
 20
5.9317244275304004
 30
0.0
 40
0.2
  1
NOTE: These were derived from Inventor 2008
  0
TEXT
  5
16B7
  8
0
 10
1.024971791128507
 20
5.5983910941970674
 30
0.0
 40
0.2
  1
(excluding the 24 pitch) and have pressure
  0
TEXT
  5
16B8
  8
0
 10
1.024971791128507
 20
5.2650577608637343
 30
0.0
 40
0.2
  1
angles of 20 degrees.
  0
ENDBLK
  5
16BA
  8
0
  0
BLOCK
  8
0
  2
*U90
 70
     1
 10
0.0
 20
0.0
 30
0.0
  3
*U90
  1

  0
TEXT
  5
16BC
  8
0
 10
0.9395773914231995
 20
4.7725969732238864
 30
0.0
 40
0.2
  1
NOTE: To add multiple teeth use the inventor
  0
TEXT
  5
16BD
  8
0
 10
0.9395773914231995
 20
4.4392636398905534
 30
0.0
 40
0.2
  1
"copy" tool, select the red part of the gear
  0
TEXT
  5
16BE
  8
0
 10
0.9395773914231995
 20
4.1059303065572204
 30
0.0
 40
0.2
  1
and press enter.  Then select as your
  0
TEXT
  5
16BF
  8
0
 10
0.9395773914231995
 20
3.772596973223886
 30
0.0
 40
0.2
  1
basepoint the left most red point, and your
  0
TEXT
  5
16C0
  8
0
 10
0.9395773914231995
 20
3.4392636398905529
 30
0.0
 40
0.2
  1
second point to be the right most red point.
  0
ENDBLK
  5
16C2
  8
0
  0
BLOCK
  8
0
  2
*U91
 70
     1
 10
0.0
 20
0.0
 30
0.0
  3
*U91
  1

  0
TEXT
  5
16C4
  8
0
 10
10.24782351886995
 20
3.4765757398997601
 30
0.0
 40
0.2
  1
base
  0
ENDBLK
  5
16C6
  8
0
  0
BLOCK
  8
0
  2
*U92
 70
     1
 10
0.0
 20
0.0
 30
0.0
  3
*U92
  1

  0
TEXT
  5
16C8
  8
0
 10
11.868468295243559
 20
3.5018079310369661
 30
0.0
 40
0.2
  1
second
  0
ENDBLK
  5
16CA
  8
0
  0
ENDSEC
  0
SECTION
  2
ENTITIES
  0
ARC
  5
63A
  8
VISIBLE__ANSI_
 10
-1.1271803281479631
 20
0.4780324901643063
 30
0.0
 40
1.9742160059519609
 50
11.50590666740689
 51
23.044665675531849
  0
ARC
  5
63B
  8
VISIBLE__ANSI_
 10
0.6213220347908753
 20
-2.9151056792285179
 30
0.0
 40
4.1665000000004886
 50
89.062500000000597
 51
90.937500000000313
  0
ARC
  5
63C
  8
VISIBLE__ANSI_
 10
2.3698243977295981
 20
0.4780324901644342
 30
0.0
 40
1.9742160059518861
 50
156.9553343244711
 51
168.49409333259641
  0
INSERT
  5
641
  8
0
  2
*U56
 10
0.0
 20
0.0
 30
0.0
  0
ARC
  5
650
  8
VISIBLE__ANSI_
 10
3.0216200742073478
 20
0.9378213689409626
 30
0.0
 40
0.9171788343458901
 50
4.0581720265394221
 51
22.682606846122749
  0
ARC
  5
651
  8
VISIBLE__ANSI_
 10
3.8126587573890158
 20
0.1678644599154779
 30
0.0
 40
1.1249999999999001
 50
87.187499999997144
 51
92.812499999997542
  0
ARC
  5
652
  8
VISIBLE__ANSI_
 10
4.60369744057079
 20
0.9378213689409733
 30
0.0
 40
0.9171788343458887
 50
157.3173931538777
 51
175.94182797346139
  0
INSERT
  5
657
  8
0
  2
*U57
 10
0.0
 20
0.0
 30
0.0
  0
ARC
  5
74D
  8
VISIBLE__ANSI_
 10
5.9518933959645821
 20
0.8639800671024033
 30
0.0
 40
0.9239867622092733
 50
8.0716948207453605
 51
22.867707062689242
  0
ARC
  5
74E
  8
VISIBLE__ANSI_
 10
6.7608545025654321
 20
-0.1262881986103306
 30
0.0
 40
1.3500000000003241
 50
88.199999999998198
 51
91.799999999997269
  0
ARC
  5
74F
  8
VISIBLE__ANSI_
 10
7.5698156091663371
 20
0.8639800671024371
 30
0.0
 40
0.9239867622092155
 50
157.13229293731141
 51
171.9283051792558
  0
INSERT
  5
754
  8
0
  2
*U61
 10
0.0
 20
0.0
 30
0.0
  0
ARC
  5
1262
  8
VISIBLE__ANSI_
 10
8.3790650493886432
 20
1.0449681046968631
 30
0.0
 40
0.8337229153518551
 50
9.2681282646318035
 51
22.93203335266492
  0
ARC
  5
1263
  8
VISIBLE__ANSI_
 10
9.1119899706776835
 20
0.0367759519219284
 30
0.0
 40
1.3335000000001691
 50
88.500000000000952
 51
91.50000000000027
  0
ARC
  5
1264
  8
VISIBLE__ANSI_
 10
9.8449148919666651
 20
1.0449681046968771
 30
0.0
 40
0.8337229153518345
 50
157.06796664733551
 51
170.7318717353682
  0
INSERT
  5
1269
  8
0
  2
*U84
 10
0.0
 20
0.0
 30
0.0
  0
ARC
  5
12E8
  8
VISIBLE__ANSI_
 10
0.7176939235759292
 20
2.7085599231523072
 30
0.0
 40
0.6411717965747098
 50
9.6536497437594981
 51
22.968137537739349
  0
ARC
  5
12E9
  8
VISIBLE__ANSI_
 10
1.2819598462534141
 20
1.8965774551277399
 30
0.0
 40
1.0624999999997009
 50
88.593749999997897
 51
91.406249999998437
  0
ARC
  5
12EA
  8
VISIBLE__ANSI_
 10
1.846225768931006
 20
2.7085599231522539
 30
0.0
 40
0.6411717965747596
 50
157.03186246225749
 51
170.3463502562368
  0
INSERT
  5
12EF
  8
0
  2
*U85
 10
0.0
 20
0.0
 30
0.0
  0
ARC
  5
12F0
  8
VISIBLE__ANSI_
 10
3.038487228340137
 20
2.7248752401646068
 30
0.0
 40
0.5135469576396594
 50
9.6394451813902258
 51
22.94857856103739
  0
ARC
  5
12F1
  8
VISIBLE__ANSI_
 10
3.4905295465981601
 20
2.0753656899621258
 30
0.0
 40
0.8500000000000099
 50
88.593749999999517
 51
91.406249999999659
  0
ARC
  5
12F2
  8
VISIBLE__ANSI_
 10
3.942571864856184
 20
2.7248752401646068
 30
0.0
 40
0.5135469576396518
 50
157.05142143896251
 51
170.36055481861021
  0
INSERT
  5
12F7
  8
0
  2
*U86
 10
0.0
 20
0.0
 30
0.0
  0
INSERT
  5
131B
  8
0
  2
*U87
 10
0.0
 20
0.0
 30
0.0
  0
ARC
  5
131C
  8
VISIBLE__ANSI_
 10
7.6837080121894843
 20
2.6990302958626908
 30
0.0
 40
0.2842451046993866
 50
7.7395967060985909
 51
22.80665933876087
  0
ARC
  5
131D
  8
VISIBLE__ANSI_
 10
7.9324299889163816
 20
2.4029278044067932
 30
0.0
 40
0.406500000000093
 50
88.125000000000313
 51
91.875000000000071
  0
ARC
  5
131E
  8
VISIBLE__ANSI_
 10
8.1811519656432736
 20
2.6990302958626842
 30
0.0
 40
0.2842451046993817
 50
157.19334066123781
 51
172.2604032939002
  0
LINE
  5
131F
  8
0
 62
     1
 10
7.9653637480671122
 20
2.7373098725687539
 30
0.0
 11
7.9976712297656434
 21
2.7373098725687539
 31
0.0
  0
ARC
  5
1320
  8
VISIBLE__ANSI_
 62
     1
 10
7.7818830121894811
 20
2.6990302958626908
 30
0.0
 40
0.2842451046993866
 50
7.7395967060985909
 51
22.80665933876087
  0
ARC
  5
1321
  8
VISIBLE__ANSI_
 62
     1
 10
8.0306049889163802
 20
2.4029278044067932
 30
0.0
 40
0.406500000000093
 50
88.125000000000313
 51
91.875000000000071
  0
ARC
  5
1322
  8
VISIBLE__ANSI_
 62
     1
 10
8.2793269656432713
 20
2.6990302958626842
 30
0.0
 40
0.2842451046993817
 50
157.19334066123781
 51
172.2604032939002
  0
INSERT
  5
1323
  8
0
  2
*U88
 10
0.0
 20
0.0
 30
0.0
  0
LINE
  5
1336
  8
0
 62
     1
 10
3.544783412252916
 20
2.8108674017626698
 30
0.0
 11
3.5933556809434131
 21
2.8108674017626698
 31
0.0
  0
ARC
  5
1337
  8
VISIBLE__ANSI_
 62
     1
 10
3.1955672283401371
 20
2.7248752401646068
 30
0.0
 40
0.5135469576396594
 50
9.6394451813902258
 51
22.94857856103739
  0
ARC
  5
1338
  8
VISIBLE__ANSI_
 62
     1
 10
3.6476095465981611
 20
2.0753656899621258
 30
0.0
 40
0.8500000000000099
 50
88.593749999999517
 51
91.406249999999659
  0
ARC
  5
1339
  8
VISIBLE__ANSI_
 62
     1
 10
4.0996518648561837
 20
2.7248752401646068
 30
0.0
 40
0.5135469576396518
 50
157.05142143896251
 51
170.36055481861021
  0
LINE
  5
133A
  8
0
 62
     1
 10
1.349786373892339
 20
2.8160792561851951
 30
0.0
 11
1.410483318614554
 21
2.8160792561851951
 31
0.0
  0
ARC
  5
133B
  8
VISIBLE__ANSI_
 62
     1
 10
0.9140439235759291
 20
2.7085599231523072
 30
0.0
 40
0.6411717965747098
 50
9.6536497437594981
 51
22.968137537739349
  0
ARC
  5
133C
  8
VISIBLE__ANSI_
 62
     1
 10
1.4783098462534141
 20
1.8965774551277399
 30
0.0
 40
1.0624999999997009
 50
88.593749999997897
 51
91.406249999998408
  0
ARC
  5
133D
  8
VISIBLE__ANSI_
 62
     1
 10
2.0425757689310058
 20
2.7085599231522539
 30
0.0
 40
0.6411717965747596
 50
157.03186246225749
 51
170.3463502562368
  0
LINE
  5
133F
  8
0
 62
     1
 10
9.2019040943817743
 20
1.1792432163802571
 30
0.0
 11
9.2838748469735535
 21
1.1792432163802571
 31
0.0
  0
ARC
  5
1340
  8
VISIBLE__ANSI_
 62
     1
 10
8.6408640493886431
 20
1.0449681046968631
 30
0.0
 40
0.8337229153518551
 50
9.2681282646318035
 51
22.93203335266492
  0
ARC
  5
1341
  8
VISIBLE__ANSI_
 62
     1
 10
9.3737889706776834
 20
0.0367759519219284
 30
0.0
 40
1.3335000000001691
 50
88.500000000000952
 51
91.500000000000256
  0
ARC
  5
1342
  8
VISIBLE__ANSI_
 62
     1
 10
10.10671389196666
 20
1.0449681046968771
 30
0.0
 40
0.8337229153518345
 50
157.06796664733551
 51
170.7318717353682
  0
LINE
  5
1343
  8
0
 62
     1
 10
6.8667263550488133
 20
0.9937190115684579
 30
0.0
 11
6.9691416500821601
 21
0.9937190115684579
 31
0.0
  0
ARC
  5
1344
  8
VISIBLE__ANSI_
 62
     1
 10
6.2660523959645822
 20
0.8639800671024033
 30
0.0
 40
0.9239867622092733
 50
8.0716948207453605
 51
22.867707062689242
  0
ARC
  5
1345
  8
VISIBLE__ANSI_
 62
     1
 10
7.075013502565433
 20
-0.1262881986103306
 30
0.0
 40
1.3500000000003241
 50
88.199999999998198
 51
91.799999999997269
  0
ARC
  5
1346
  8
VISIBLE__ANSI_
 62
     1
 10
7.8839746091663372
 20
0.8639800671024371
 30
0.0
 40
0.9239867622092155
 50
157.13229293731141
 51
171.9283051792558
  0
LINE
  5
1347
  8
0
 62
     1
 10
3.9364992778293901
 20
1.0027294343256541
 30
0.0
 11
4.0815172369487493
 21
1.0027294343256541
 31
0.0
  0
ARC
  5
1348
  8
VISIBLE__ANSI_
 62
     1
 10
3.4143190742073481
 20
0.9378213689409626
 30
0.0
 40
0.9171788343458901
 50
4.0581720265394221
 51
22.682606846122749
  0
ARC
  5
1349
  8
VISIBLE__ANSI_
 62
     1
 10
4.2053577573890157
 20
0.1678644599154779
 30
0.0
 40
1.1249999999999001
 50
87.187499999997144
 51
92.812499999997542
  0
ARC
  5
134A
  8
VISIBLE__ANSI_
 62
     1
 10
4.9963964405707912
 20
0.9378213689409733
 30
0.0
 40
0.9171788343458887
 50
157.3173931538777
 51
175.94182797346139
  0
LINE
  5
134B
  8
0
 62
     1
 10
0.8073621220032565
 20
0.8718272929738827
 30
0.0
 11
0.9588809475784291
 21
0.8718272929738827
 31
0.0
  0
ARC
  5
134C
  8
VISIBLE__ANSI_
 62
     1
 10
-0.6035813281479632
 20
0.4780324901643063
 30
0.0
 40
1.9742160059519609
 50
11.50590666740689
 51
23.044665675531849
  0
ARC
  5
134D
  8
VISIBLE__ANSI_
 62
     1
 10
1.1449210347908749
 20
-2.9151056792285179
 30
0.0
 40
4.1665000000004886
 50
89.062500000000597
 51
90.937500000000313
  0
ARC
  5
134E
  8
VISIBLE__ANSI_
 62
     1
 10
2.893423397729598
 20
0.4780324901644342
 30
0.0
 40
1.9742160059518861
 50
156.9553343244711
 51
168.49409333259641
  0
ARC
  5
1378
  8
0
 10
5.867009409148209
 20
2.8038688284643452
 30
0.0
 40
0.0065415718125022
 50
178.0956238297841
 51
267.76130605274147
1001
TB_S_MPD
1070
   100
1000
GEAR
1070
   101
1000
TOOLBOX 13.0 GEAR 13.0
1070
   103
1000
0
1070
   301
1040
56.0
1070
   302
1040
8.0
1070
   303
1040
14.5
1070
   304
1040
6.0
1070
   305
1040
0.0025
1070
   306
1040
0.125
1070
   307
1040
0.15625
1070
   308
1040
0.019625
1070
   309
1040
56.0
1070
   112
1000
8DP,56T,14.5PA GEAR
  0
LINE
  5
1379
  8
0
 10
5.8604714503722022
 20
2.8040862148053658
 30
0.0
 11
5.8607505799381414
 21
2.8124811194106552
 31
0.0
1001
TB_S_MPD
1070
   100
1000
GEAR
1070
   101
1000
TOOLBOX 13.0 GEAR 13.0
1070
   103
1000
0
1070
   301
1040
56.0
1070
   302
1040
8.0
1070
   303
1040
14.5
1070
   304
1040
6.0
1070
   305
1040
0.0025
1070
   306
1040
0.125
1070
   307
1040
0.15625
1070
   308
1040
0.019625
1070
   309
1040
56.0
1070
   112
1000
8DP,56T,14.5PA GEAR
  0
ARC
  5
137A
  8
0
 10
5.8204785578395644
 20
2.8132523853247728
 30
0.0
 40
0.040279406835489
 50
358.90283929149808
 51
2.1316250345262469
1001
TB_S_MPD
1070
   100
1000
GEAR
1070
   101
1000
TOOLBOX 13.0 GEAR 13.0
1070
   103
1000
0
1070
   301
1040
56.0
1070
   302
1040
8.0
1070
   303
1040
14.5
1070
   304
1040
6.0
1070
   305
1040
0.0025
1070
   306
1040
0.125
1070
   307
1040
0.15625
1070
   308
1040
0.019625
1070
   309
1040
56.0
1070
   112
1000
8DP,56T,14.5PA GEAR
  0
ARC
  5
137B
  8
0
 10
5.7523500906749581
 20
2.8110660253885689
 30
0.0
 40
0.1084426147402496
 50
1.9471185185245661
 51
5.5449092834143903
1001
TB_S_MPD
1070
   100
1000
GEAR
1070
   101
1000
TOOLBOX 13.0 GEAR 13.0
1070
   103
1000
0
1070
   301
1040
56.0
1070
   302
1040
8.0
1070
   303
1040
14.5
1070
   304
1040
6.0
1070
   305
1040
0.0025
1070
   306
1040
0.125
1070
   307
1040
0.15625
1070
   308
1040
0.019625
1070
   309
1040
56.0
1070
   112
1000
8DP,56T,14.5PA GEAR
  0
ARC
  5
137C
  8
0
 10
5.6814876908817382
 20
2.8043672059832039
 30
0.0
 40
0.179620802385069
 50
5.4875974298465859
 51
9.1077524372966572
1001
TB_S_MPD
1070
   100
1000
GEAR
1070
   101
1000
TOOLBOX 13.0 GEAR 13.0
1070
   103
1000
0
1070
   301
1040
56.0
1070
   302
1040
8.0
1070
   303
1040
14.5
1070
   304
1040
6.0
1070
   305
1040
0.0025
1070
   306
1040
0.125
1070
   307
1040
0.15625
1070
   308
1040
0.019625
1070
   309
1040
56.0
1070
   112
1000
8DP,56T,14.5PA GEAR
  0
ARC
  5
137D
  8
0
 10
5.610940054289002
 20
2.7931701259671931
 30
0.0
 40
0.2510514315571599
 50
9.0823759692574662
 51
12.70855212310509
1001
TB_S_MPD
1070
   100
1000
GEAR
1070
   101
1000
TOOLBOX 13.0 GEAR 13.0
1070
   103
1000
0
1070
   301
1040
56.0
1070
   302
1040
8.0
1070
   303
1040
14.5
1070
   304
1040
6.0
1070
   305
1040
0.0025
1070
   306
1040
0.125
1070
   307
1040
0.15625
1070
   308
1040
0.019625
1070
   309
1040
56.0
1070
   112
1000
8DP,56T,14.5PA GEAR
  0
ARC
  5
137E
  8
0
 10
5.5411642747647099
 20
2.7775167189267469
 30
0.0
 40
0.3225614557303673
 50
12.69431088127056
 51
16.322947689869679
1001
TB_S_MPD
1070
   100
1000
GEAR
1070
   101
1000
TOOLBOX 13.0 GEAR 13.0
1070
   103
1000
0
1070
   301
1040
56.0
1070
   302
1040
8.0
1070
   303
1040
14.5
1070
   304
1040
6.0
1070
   305
1040
0.0025
1070
   306
1040
0.125
1070
   307
1040
0.15625
1070
   308
1040
0.019625
1070
   309
1040
56.0
1070
   112
1000
8DP,56T,14.5PA GEAR
  0
ARC
  5
137F
  8
0
 10
5.4726015205363154
 20
2.7575049012019051
 30
0.0
 40
0.3939849862808957
 50
16.313576409346119
 51
19.924780484447851
1001
TB_S_MPD
1070
   100
1000
GEAR
1070
   101
1000
TOOLBOX 13.0 GEAR 13.0
1070
   103
1000
0
1070
   301
1040
56.0
1070
   302
1040
8.0
1070
   303
1040
14.5
1070
   304
1040
6.0
1070
   305
1040
0.0025
1070
   306
1040
0.125
1070
   307
1040
0.15625
1070
   308
1040
0.019625
1070
   309
1040
56.0
1070
   112
1000
8DP,56T,14.5PA GEAR
  0
ARC
  5
1380
  8
0
 10
5.8232159426961649
 20
1.683615755507702
 30
0.0
 40
1.208315812500057
 50
89.061702861985523
 51
90.93829713801442
1001
TB_S_MPD
1070
   100
1000
GEAR
1070
   101
1000
TOOLBOX 13.0 GEAR 13.0
1070
   103
1000
0
1070
   301
1040
56.0
1070
   302
1040
8.0
1070
   303
1040
14.5
1070
   304
1040
6.0
1070
   305
1040
0.0025
1070
   306
1040
0.125
1070
   307
1040
0.15625
1070
   308
1040
0.019625
1070
   309
1040
56.0
1070
   112
1000
8DP,56T,14.5PA GEAR
  0
ARC
  5
1381
  8
0
 10
6.1738303648562001
 20
2.7575049012019122
 30
0.0
 40
0.3939849862810683
 50
160.07521951556339
 51
163.6864235906626
1001
TB_S_MPD
1070
   100
1000
GEAR
1070
   101
1000
TOOLBOX 13.0 GEAR 13.0
1070
   103
1000
0
1070
   301
1040
56.0
1070
   302
1040
8.0
1070
   303
1040
14.5
1070
   304
1040
6.0
1070
   305
1040
0.0025
1070
   306
1040
0.125
1070
   307
1040
0.15625
1070
   308
1040
0.019625
1070
   309
1040
56.0
1070
   112
1000
8DP,56T,14.5PA GEAR
  0
ARC
  5
1382
  8
0
 10
6.1052676106281112
 20
2.7775167189264631
 30
0.0
 40
0.3225614557309076
 50
163.67705231010561
 51
167.30568911869889
1001
TB_S_MPD
1070
   100
1000
GEAR
1070
   101
1000
TOOLBOX 13.0 GEAR 13.0
1070
   103
1000
0
1070
   301
1040
56.0
1070
   302
1040
8.0
1070
   303
1040
14.5
1070
   304
1040
6.0
1070
   305
1040
0.0025
1070
   306
1040
0.125
1070
   307
1040
0.15625
1070
   308
1040
0.019625
1070
   309
1040
56.0
1070
   112
1000
8DP,56T,14.5PA GEAR
  0
ARC
  5
1383
  8
0
 10
6.0354918311031858
 20
2.7931701259672499
 30
0.0
 40
0.2510514315570101
 50
167.29144787689981
 51
170.91762403074901
1001
TB_S_MPD
1070
   100
1000
GEAR
1070
   101
1000
TOOLBOX 13.0 GEAR 13.0
1070
   103
1000
0
1070
   301
1040
56.0
1070
   302
1040
8.0
1070
   303
1040
14.5
1070
   304
1040
6.0
1070
   305
1040
0.0025
1070
   306
1040
0.125
1070
   307
1040
0.15625
1070
   308
1040
0.019625
1070
   309
1040
56.0
1070
   112
1000
8DP,56T,14.5PA GEAR
  0
ARC
  5
1384
  8
0
 10
5.964944194511097
 20
2.8043672059832221
 30
0.0
 40
0.1796208023855778
 50
170.8922475627337
 51
174.51240257017341
1001
TB_S_MPD
1070
   100
1000
GEAR
1070
   101
1000
TOOLBOX 13.0 GEAR 13.0
1070
   103
1000
0
1070
   301
1040
56.0
1070
   302
1040
8.0
1070
   303
1040
14.5
1070
   304
1040
6.0
1070
   305
1040
0.0025
1070
   306
1040
0.125
1070
   307
1040
0.15625
1070
   308
1040
0.019625
1070
   309
1040
56.0
1070
   112
1000
8DP,56T,14.5PA GEAR
  0
ARC
  5
1385
  8
0
 10
5.8940817947171018
 20
2.811066025388548
 30
0.0
 40
0.1084426147399817
 50
174.45509071656099
 51
178.052881481464
1001
TB_S_MPD
1070
   100
1000
GEAR
1070
   101
1000
TOOLBOX 13.0 GEAR 13.0
1070
   103
1000
0
1070
   301
1040
56.0
1070
   302
1040
8.0
1070
   303
1040
14.5
1070
   304
1040
6.0
1070
   305
1040
0.0025
1070
   306
1040
0.125
1070
   307
1040
0.15625
1070
   308
1040
0.019625
1070
   309
1040
56.0
1070
   112
1000
8DP,56T,14.5PA GEAR
  0
ARC
  5
1386
  8
0
 10
5.825953327553214
 20
2.8132523853247622
 30
0.0
 40
0.0402794068359361
 50
177.8683749654904
 51
181.0971607084758
1001
TB_S_MPD
1070
   100
1000
GEAR
1070
   101
1000
TOOLBOX 13.0 GEAR 13.0
1070
   103
1000
0
1070
   301
1040
56.0
1070
   302
1040
8.0
1070
   303
1040
14.5
1070
   304
1040
6.0
1070
   305
1040
0.0025
1070
   306
1040
0.125
1070
   307
1040
0.15625
1070
   308
1040
0.019625
1070
   309
1040
56.0
1070
   112
1000
8DP,56T,14.5PA GEAR
  0
LINE
  5
1387
  8
0
 10
5.7856813054541831
 20
2.8124811194106552
 30
0.0
 11
5.7859604350201357
 21
2.8040862148053591
 31
0.0
1001
TB_S_MPD
1070
   100
1000
GEAR
1070
   101
1000
TOOLBOX 13.0 GEAR 13.0
1070
   103
1000
0
1070
   301
1040
56.0
1070
   302
1040
8.0
1070
   303
1040
14.5
1070
   304
1040
6.0
1070
   305
1040
0.0025
1070
   306
1040
0.125
1070
   307
1040
0.15625
1070
   308
1040
0.019625
1070
   309
1040
56.0
1070
   112
1000
8DP,56T,14.5PA GEAR
  0
ARC
  5
1388
  8
0
 10
5.7794224762441351
 20
2.8038688284643518
 30
0.0
 40
0.0065415718124949
 50
272.23869394723732
 51
1.904376170194708
1001
TB_S_MPD
1070
   100
1000
GEAR
1070
   101
1000
TOOLBOX 13.0 GEAR 13.0
1070
   103
1000
0
1070
   301
1040
56.0
1070
   302
1040
8.0
1070
   303
1040
14.5
1070
   304
1040
6.0
1070
   305
1040
0.0025
1070
   306
1040
0.125
1070
   307
1040
0.15625
1070
   308
1040
0.019625
1070
   309
1040
56.0
1070
   112
1000
8DP,56T,14.5PA GEAR
  0
LINE
  5
1389
  8
0
 62
     1
 10
5.8667538780881552
 20
2.7973322494159838
 30
0.0
 11
5.910576007303832
 21
2.7973322494159851
 31
0.0
  0
ARC
  5
138A
  8
0
 62
     1
 10
5.997907409148211
 20
2.8038688284643452
 30
0.0
 40
0.0065415718125022
 50
178.0956238297841
 51
267.76130605274147
1001
TB_S_MPD
1070
   100
1000
GEAR
1070
   101
1000
TOOLBOX 13.0 GEAR 13.0
1070
   103
1000
0
1070
   301
1040
56.0
1070
   302
1040
8.0
1070
   303
1040
14.5
1070
   304
1040
6.0
1070
   305
1040
0.0025
1070
   306
1040
0.125
1070
   307
1040
0.15625
1070
   308
1040
0.019625
1070
   309
1040
56.0
1070
   112
1000
8DP,56T,14.5PA GEAR
  0
LINE
  5
138B
  8
0
 62
     1
 10
5.9913694503722041
 20
2.8040862148053658
 30
0.0
 11
5.9916485799381434
 21
2.8124811194106552
 31
0.0
1001
TB_S_MPD
1070
   100
1000
GEAR
1070
   101
1000
TOOLBOX 13.0 GEAR 13.0
1070
   103
1000
0
1070
   301
1040
56.0
1070
   302
1040
8.0
1070
   303
1040
14.5
1070
   304
1040
6.0
1070
   305
1040
0.0025
1070
   306
1040
0.125
1070
   307
1040
0.15625
1070
   308
1040
0.019625
1070
   309
1040
56.0
1070
   112
1000
8DP,56T,14.5PA GEAR
  0
ARC
  5
138C
  8
0
 62
     1
 10
5.9513765578395663
 20
2.8132523853247728
 30
0.0
 40
0.040279406835489
 50
358.90283929149808
 51
2.1316250345262469
1001
TB_S_MPD
1070
   100
1000
GEAR
1070
   101
1000
TOOLBOX 13.0 GEAR 13.0
1070
   103
1000
0
1070
   301
1040
56.0
1070
   302
1040
8.0
1070
   303
1040
14.5
1070
   304
1040
6.0
1070
   305
1040
0.0025
1070
   306
1040
0.125
1070
   307
1040
0.15625
1070
   308
1040
0.019625
1070
   309
1040
56.0
1070
   112
1000
8DP,56T,14.5PA GEAR
  0
ARC
  5
138D
  8
0
 62
     1
 10
5.88324809067496
 20
2.8110660253885689
 30
0.0
 40
0.1084426147402496
 50
1.9471185185245661
 51
5.5449092834143903
1001
TB_S_MPD
1070
   100
1000
GEAR
1070
   101
1000
TOOLBOX 13.0 GEAR 13.0
1070
   103
1000
0
1070
   301
1040
56.0
1070
   302
1040
8.0
1070
   303
1040
14.5
1070
   304
1040
6.0
1070
   305
1040
0.0025
1070
   306
1040
0.125
1070
   307
1040
0.15625
1070
   308
1040
0.019625
1070
   309
1040
56.0
1070
   112
1000
8DP,56T,14.5PA GEAR
  0
ARC
  5
138E
  8
0
 62
     1
 10
5.8123856908817402
 20
2.8043672059832039
 30
0.0
 40
0.179620802385069
 50
5.4875974298465859
 51
9.1077524372966572
1001
TB_S_MPD
1070
   100
1000
GEAR
1070
   101
1000
TOOLBOX 13.0 GEAR 13.0
1070
   103
1000
0
1070
   301
1040
56.0
1070
   302
1040
8.0
1070
   303
1040
14.5
1070
   304
1040
6.0
1070
   305
1040
0.0025
1070
   306
1040
0.125
1070
   307
1040
0.15625
1070
   308
1040
0.019625
1070
   309
1040
56.0
1070
   112
1000
8DP,56T,14.5PA GEAR
  0
ARC
  5
138F
  8
0
 62
     1
 10
5.741838054289004
 20
2.7931701259671931
 30
0.0
 40
0.2510514315571599
 50
9.0823759692574662
 51
12.70855212310509
1001
TB_S_MPD
1070
   100
1000
GEAR
1070
   101
1000
TOOLBOX 13.0 GEAR 13.0
1070
   103
1000
0
1070
   301
1040
56.0
1070
   302
1040
8.0
1070
   303
1040
14.5
1070
   304
1040
6.0
1070
   305
1040
0.0025
1070
   306
1040
0.125
1070
   307
1040
0.15625
1070
   308
1040
0.019625
1070
   309
1040
56.0
1070
   112
1000
8DP,56T,14.5PA GEAR
  0
ARC
  5
1390
  8
0
 62
     1
 10
5.6720622747647118
 20
2.7775167189267469
 30
0.0
 40
0.3225614557303673
 50
12.69431088127056
 51
16.322947689869679
1001
TB_S_MPD
1070
   100
1000
GEAR
1070
   101
1000
TOOLBOX 13.0 GEAR 13.0
1070
   103
1000
0
1070
   301
1040
56.0
1070
   302
1040
8.0
1070
   303
1040
14.5
1070
   304
1040
6.0
1070
   305
1040
0.0025
1070
   306
1040
0.125
1070
   307
1040
0.15625
1070
   308
1040
0.019625
1070
   309
1040
56.0
1070
   112
1000
8DP,56T,14.5PA GEAR
  0
ARC
  5
1391
  8
0
 62
     1
 10
5.6034995205363174
 20
2.7575049012019051
 30
0.0
 40
0.3939849862808957
 50
16.313576409346119
 51
19.924780484447851
1001
TB_S_MPD
1070
   100
1000
GEAR
1070
   101
1000
TOOLBOX 13.0 GEAR 13.0
1070
   103
1000
0
1070
   301
1040
56.0
1070
   302
1040
8.0
1070
   303
1040
14.5
1070
   304
1040
6.0
1070
   305
1040
0.0025
1070
   306
1040
0.125
1070
   307
1040
0.15625
1070
   308
1040
0.019625
1070
   309
1040
56.0
1070
   112
1000
8DP,56T,14.5PA GEAR
  0
ARC
  5
1392
  8
0
 62
     1
 10
5.9541139426961669
 20
1.683615755507702
 30
0.0
 40
1.208315812500057
 50
89.061702861985523
 51
90.93829713801442
1001
TB_S_MPD
1070
   100
1000
GEAR
1070
   101
1000
TOOLBOX 13.0 GEAR 13.0
1070
   103
1000
0
1070
   301
1040
56.0
1070
   302
1040
8.0
1070
   303
1040
14.5
1070
   304
1040
6.0
1070
   305
1040
0.0025
1070
   306
1040
0.125
1070
   307
1040
0.15625
1070
   308
1040
0.019625
1070
   309
1040
56.0
1070
   112
1000
8DP,56T,14.5PA GEAR
  0
ARC
  5
1393
  8
0
 62
     1
 10
6.304728364856202
 20
2.7575049012019122
 30
0.0
 40
0.3939849862810683
 50
160.07521951556339
 51
163.6864235906626
1001
TB_S_MPD
1070
   100
1000
GEAR
1070
   101
1000
TOOLBOX 13.0 GEAR 13.0
1070
   103
1000
0
1070
   301
1040
56.0
1070
   302
1040
8.0
1070
   303
1040
14.5
1070
   304
1040
6.0
1070
   305
1040
0.0025
1070
   306
1040
0.125
1070
   307
1040
0.15625
1070
   308
1040
0.019625
1070
   309
1040
56.0
1070
   112
1000
8DP,56T,14.5PA GEAR
  0
ARC
  5
1394
  8
0
 62
     1
 10
6.2361656106281131
 20
2.7775167189264631
 30
0.0
 40
0.3225614557309076
 50
163.67705231010561
 51
167.30568911869889
1001
TB_S_MPD
1070
   100
1000
GEAR
1070
   101
1000
TOOLBOX 13.0 GEAR 13.0
1070
   103
1000
0
1070
   301
1040
56.0
1070
   302
1040
8.0
1070
   303
1040
14.5
1070
   304
1040
6.0
1070
   305
1040
0.0025
1070
   306
1040
0.125
1070
   307
1040
0.15625
1070
   308
1040
0.019625
1070
   309
1040
56.0
1070
   112
1000
8DP,56T,14.5PA GEAR
  0
ARC
  5
1395
  8
0
 62
     1
 10
6.1663898311031877
 20
2.7931701259672499
 30
0.0
 40
0.2510514315570101
 50
167.29144787689981
 51
170.91762403074901
1001
TB_S_MPD
1070
   100
1000
GEAR
1070
   101
1000
TOOLBOX 13.0 GEAR 13.0
1070
   103
1000
0
1070
   301
1040
56.0
1070
   302
1040
8.0
1070
   303
1040
14.5
1070
   304
1040
6.0
1070
   305
1040
0.0025
1070
   306
1040
0.125
1070
   307
1040
0.15625
1070
   308
1040
0.019625
1070
   309
1040
56.0
1070
   112
1000
8DP,56T,14.5PA GEAR
  0
ARC
  5
1396
  8
0
 62
     1
 10
6.095842194511099
 20
2.8043672059832221
 30
0.0
 40
0.1796208023855778
 50
170.8922475627337
 51
174.51240257017341
1001
TB_S_MPD
1070
   100
1000
GEAR
1070
   101
1000
TOOLBOX 13.0 GEAR 13.0
1070
   103
1000
0
1070
   301
1040
56.0
1070
   302
1040
8.0
1070
   303
1040
14.5
1070
   304
1040
6.0
1070
   305
1040
0.0025
1070
   306
1040
0.125
1070
   307
1040
0.15625
1070
   308
1040
0.019625
1070
   309
1040
56.0
1070
   112
1000
8DP,56T,14.5PA GEAR
  0
ARC
  5
1397
  8
0
 62
     1
 10
6.0249797947171038
 20
2.811066025388548
 30
0.0
 40
0.1084426147399817
 50
174.45509071656099
 51
178.052881481464
1001
TB_S_MPD
1070
   100
1000
GEAR
1070
   101
1000
TOOLBOX 13.0 GEAR 13.0
1070
   103
1000
0
1070
   301
1040
56.0
1070
   302
1040
8.0
1070
   303
1040
14.5
1070
   304
1040
6.0
1070
   305
1040
0.0025
1070
   306
1040
0.125
1070
   307
1040
0.15625
1070
   308
1040
0.019625
1070
   309
1040
56.0
1070
   112
1000
8DP,56T,14.5PA GEAR
  0
ARC
  5
1398
  8
0
 62
     1
 10
5.956851327553216
 20
2.8132523853247622
 30
0.0
 40
0.0402794068359361
 50
177.8683749654904
 51
181.0971607084758
1001
TB_S_MPD
1070
   100
1000
GEAR
1070
   101
1000
TOOLBOX 13.0 GEAR 13.0
1070
   103
1000
0
1070
   301
1040
56.0
1070
   302
1040
8.0
1070
   303
1040
14.5
1070
   304
1040
6.0
1070
   305
1040
0.0025
1070
   306
1040
0.125
1070
   307
1040
0.15625
1070
   308
1040
0.019625
1070
   309
1040
56.0
1070
   112
1000
8DP,56T,14.5PA GEAR
  0
LINE
  5
1399
  8
0
 62
     1
 10
5.9165793054541851
 20
2.8124811194106552
 30
0.0
 11
5.9168584350201376
 21
2.8040862148053591
 31
0.0
1001
TB_S_MPD
1070
   100
1000
GEAR
1070
   101
1000
TOOLBOX 13.0 GEAR 13.0
1070
   103
1000
0
1070
   301
1040
56.0
1070
   302
1040
8.0
1070
   303
1040
14.5
1070
   304
1040
6.0
1070
   305
1040
0.0025
1070
   306
1040
0.125
1070
   307
1040
0.15625
1070
   308
1040
0.019625
1070
   309
1040
56.0
1070
   112
1000
8DP,56T,14.5PA GEAR
  0
ARC
  5
139A
  8
0
 62
     1
 10
5.910320476244137
 20
2.8038688284643518
 30
0.0
 40
0.0065415718124949
 50
272.23869394723732
 51
1.904376170194708
1001
TB_S_MPD
1070
   100
1000
GEAR
1070
   101
1000
TOOLBOX 13.0 GEAR 13.0
1070
   103
1000
0
1070
   301
1040
56.0
1070
   302
1040
8.0
1070
   303
1040
14.5
1070
   304
1040
6.0
1070
   305
1040
0.0025
1070
   306
1040
0.125
1070
   307
1040
0.15625
1070
   308
1040
0.019625
1070
   309
1040
56.0
1070
   112
1000
8DP,56T,14.5PA GEAR
  0
INSERT
  5
13A0
  8
0
  2
*U89
 10
0.0
 20
0.0
 30
0.0
  0
INSERT
  5
13A1
  8
0
  2
*U90
 10
0.0
 20
0.0
 30
0.0
  0
ARC
  5
13AF
  8
VISIBLE__ANSI_
 10
9.074584580506988
 20
3.7713692696862848
 30
0.0
 40
1.9742160059519609
 50
11.50590666740688
 51
23.044665675531849
  0
ARC
  5
13B0
  8
VISIBLE__ANSI_
 10
10.823086943445819
 20
0.3782311002934611
 30
0.0
 40
4.1665000000004886
 50
89.062500000000597
 51
90.937500000000327
  0
ARC
  5
13B1
  8
VISIBLE__ANSI_
 10
12.571589306384549
 20
3.7713692696864132
 30
0.0
 40
1.9742160059518861
 50
156.95533432447101
 51
168.49409333259641
  0
LINE
  5
13B2
  8
0
 62
     1
 10
11.00912703065821
 20
4.1651640724958616
 30
0.0
 11
11.16064585623338
 21
4.1651640724958616
 31
0.0
  0
ARC
  5
13B3
  8
VISIBLE__ANSI_
 62
     1
 10
9.5981835805069871
 20
3.7713692696862848
 30
0.0
 40
1.9742160059519609
 50
11.50590666740688
 51
23.044665675531849
  0
ARC
  5
13B4
  8
VISIBLE__ANSI_
 62
     1
 10
11.34668594344582
 20
0.3782311002934611
 30
0.0
 40
4.1665000000004886
 50
89.062500000000597
 51
90.937500000000327
  0
ARC
  5
13B5
  8
VISIBLE__ANSI_
 62
     1
 10
13.09518830638455
 20
3.7713692696864132
 30
0.0
 40
1.9742160059518861
 50
156.95533432447101
 51
168.49409333259641
  0
INSERT
  5
13B6
  8
0
  2
*U91
 10
0.0
 20
0.0
 30
0.0
  0
INSERT
  5
13B7
  8
0
  2
*U92
 10
0.0
 20
0.0
 30
0.0
  0
LINE
  5
13BF
  8
0
 10
11.00912703065821
 20
4.1651640724958607
 30
0.0
 11
10.791201842645989
 21
3.667404987323891
 31
0.0
  0
LINE
  5
13C0
  8
0
 10
11.00912703065821
 20
4.1651640724958581
 30
0.0
 11
10.954426421185531
 21
4.1187233603928064
 31
0.0
  0
LINE
  5
13C1
  8
0
 10
11.00912703065821
 20
4.1651640724958554
 30
0.0
 11
11.01210681500068
 21
4.0934701585101241
 31
0.0
  0
LINE
  5
13C2
  8
0
 10
11.5327260306582
 20
4.1651640724958607
 30
0.0
 11
11.8804540390729
 21
3.6926168475262102
 31
0.0
  0
LINE
  5
13C3
  8
0
 10
11.5327260306582
 20
4.1651640724958607
 30
0.0
 11
11.5327260306582
 21
4.1111116766896032
 31
0.0
  0
LINE
  5
13C4
  8
0
 10
11.5327260306582
 20
4.1651640724958598
 30
0.0
 11
11.58433191506329
 21
4.1490863180766366
 31
0.0
  0
ENDSEC
  0
EOF
