  0
SECTION
  2
HEADER
  9
$ACADVER
  1
AC1009
  9
$INSBASE
 10
0.0
 20
0.0
 30
0.0
  9
$EXTMIN
 10
0.3595521173541414
 20
0.1246460654315687
 30
0.0
  9
$EXTMAX
 10
13.0018016285768905
 20
6.1317244275304068
 30
0.0
  9
$LIMMIN
 10
0.0
 20
0.0
  9
$LIMMAX
 10
12.0
 20
9.0
  9
$ORTHOMODE
 70
     0
  9
$REGENMODE
 70
     1
  9
$FILLMODE
 70
     1
  9
$QTEXTMODE
 70
     0
  9
$MIRRTEXT
 70
     0
  9
$DRAGMODE
 70
     2
  9
$LTSCALE
 40
1.0
  9
$OSMODE
 70
    37
  9
$ATTMODE
 70
     1
  9
$TEXTSIZE
 40
0.2
  9
$TRACEWID
 40
0.05
  9
$TEXTSTYLE
  7
STANDARD
  9
$CLAYER
  8
0
  9
$CELTYPE
  6
BYLAYER
  9
$CECOLOR
 62
   256
  9
$DIMSCALE
 40
1.0
  9
$DIMASZ
 40
0.18
  9
$DIMEXO
 40
0.0625
  9
$DIMDLI
 40
0.38
  9
$DIMRND
 40
0.0
  9
$DIMDLE
 40
0.0
  9
$DIMEXE
 40
0.18
  9
$DIMTP
 40
0.0
  9
$DIMTM
 40
0.0
  9
$DIMTXT
 40
0.18
  9
$DIMCEN
 40
0.09
  9
$DIMTSZ
 40
0.0
  9
$DIMTOL
 70
     0
  9
$DIMLIM
 70
     0
  9
$DIMTIH
 70
     1
  9
$DIMTOH
 70
     1
  9
$DIMSE1
 70
     0
  9
$DIMSE2
 70
     0
  9
$DIMTAD
 70
     0
  9
$DIMZIN
 70
     0
  9
$DIMBLK
  1

  9
$DIMASO
 70
     1
  9
$DIMSHO
 70
     1
  9
$DIMPOST
  1

  9
$DIMAPOST
  1

  9
$DIMALT
 70
     0
  9
$DIMALTD
 70
     2
  9
$DIMALTF
 40
25.3999999999999986
  9
$DIMLFAC
 40
1.0
  9
$DIMTOFL
 70
     0
  9
$DIMTVP
 40
0.0
  9
$DIMTIX
 70
     0
  9
$DIMSOXD
 70
     0
  9
$DIMSAH
 70
     0
  9
$DIMBLK1
  1

  9
$DIMBLK2
  1

  9
$DIMSTYLE
  2
STANDARD
  9
$DIMCLRD
 70
     0
  9
$DIMCLRE
 70
     0
  9
$DIMCLRT
 70
     0
  9
$DIMTFAC
 40
1.0
  9
$DIMGAP
 40
0.09
  9
$LUNITS
 70
     2
  9
$LUPREC
 70
     4
  9
$SKETCHINC
 40
0.1
  9
$FILLETRAD
 40
0.0
  9
$AUNITS
 70
     0
  9
$AUPREC
 70
     0
  9
$MENU
  1
.
  9
$ELEVATION
 40
0.0
  9
$PELEVATION
 40
0.0
  9
$THICKNESS
 40
0.0
  9
$LIMCHECK
 70
     0
  9
$BLIPMODE
 70
     0
  9
$CHAMFERA
 40
0.0
  9
$CHAMFERB
 40
0.0
  9
$SKPOLY
 70
     0
  9
$TDCREATE
 40
2454390.8739351858384907
  9
$TDUPDATE
 40
2458795.6033796300180256
  9
$TDINDWG
 40
0.0742652199
  9
$TDUSRTIMER
 40
0.0742496759
  9
$USRTIMER
 70
     1
  9
$ANGBASE
 50
0.0
  9
$ANGDIR
 70
     0
  9
$PDMODE
 70
     0
  9
$PDSIZE
 40
0.0
  9
$PLINEWID
 40
0.0
  9
$COORDS
 70
     1
  9
$SPLFRAME
 70
     0
  9
$SPLINETYPE
 70
     6
  9
$SPLINESEGS
 70
     8
  9
$ATTDIA
 70
     1
  9
$ATTREQ
 70
     1
  9
$HANDLING
 70
     1
  9
$HANDSEED
  5
1831
  9
$SURFTAB1
 70
     6
  9
$SURFTAB2
 70
     6
  9
$SURFTYPE
 70
     6
  9
$SURFU
 70
     6
  9
$SURFV
 70
     6
  9
$UCSNAME
  2

  9
$UCSORG
 10
0.0
 20
0.0
 30
0.0
  9
$UCSXDIR
 10
1.0
 20
0.0
 30
0.0
  9
$UCSYDIR
 10
0.0
 20
1.0
 30
0.0
  9
$PUCSNAME
  2

  9
$PUCSORG
 10
0.0
 20
0.0
 30
0.0
  9
$PUCSXDIR
 10
1.0
 20
0.0
 30
0.0
  9
$PUCSYDIR
 10
0.0
 20
1.0
 30
0.0
  9
$USERI1
 70
     0
  9
$USERI2
 70
     0
  9
$USERI3
 70
     0
  9
$USERI4
 70
     0
  9
$USERI5
 70
     0
  9
$USERR1
 40
0.0
  9
$USERR2
 40
0.0
  9
$USERR3
 40
0.0
  9
$USERR4
 40
0.0
  9
$USERR5
 40
0.0
  9
$WORLDVIEW
 70
     1
  9
$SHADEDGE
 70
     3
  9
$SHADEDIF
 70
    70
  9
$TILEMODE
 70
     1
  9
$MAXACTVP
 70
    64
  9
$PLIMCHECK
 70
     0
  9
$PEXTMIN
 10
0.0
 20
0.0
 30
0.0
  9
$PEXTMAX
 10
0.0
 20
0.0
 30
0.0
  9
$PLIMMIN
 10
0.0
 20
0.0
  9
$PLIMMAX
 10
12.0
 20
9.0
  9
$UNITMODE
 70
     0
  9
$VISRETAIN
 70
     1
  9
$PLINEGEN
 70
     0
  9
$PSLTSCALE
 70
     1
  0
ENDSEC
  0
SECTION
  2
TABLES
  0
TABLE
  2
VPORT
 70
     1
  0
VPORT
  2
*ACTIVE
 70
     0
 10
0.0
 20
0.0
 11
1.0
 21
1.0
 12
10.2897774098128707
 22
3.3668677862931831
 13
0.0
 23
0.0
 14
0.5
 24
0.5
 15
0.5
 25
0.5
 16
0.0
 26
0.0
 36
1.0
 17
0.0
 27
0.0
 37
0.0
 40
13.3033944206697701
 41
1.9968652037617549
 42
50.0
 43
0.0
 44
0.0
 50
0.0
 51
0.0
 71
     0
 72
 20000
 73
     1
 74
     3
 75
     0
 76
     0
 77
     0
 78
     0
  0
ENDTAB
  0
TABLE
  2
LTYPE
 70
     3
  0
LTYPE
  2
CONTINUOUS
 70
     0
  3
Solid line
 72
    65
 73
     0
 40
0.0
  0
LTYPE
  2
CENTER
 70
     0
  3
Center ____ _ ____ _ ____ _ ____ _ ____ _ ____
 72
    65
 73
     4
 40
2.0
 49
1.25
 49
-0.25
 49
0.25
 49
-0.25
  0
LTYPE
  2
HIDDEN
 70
     0
  3
Hidden __ __ __ __ __ __ __ __ __ __ __ __ __ _
 72
    65
 73
     2
 40
0.375
 49
0.25
 49
-0.125
  0
ENDTAB
  0
TABLE
  2
LAYER
 70
     4
  0
LAYER
  2
0
 70
     0
 62
     7
  6
CONTINUOUS
  0
LAYER
  2
VISIBLE__ANSI_
 70
     0
 62
     7
  6
CONTINUOUS
  0
LAYER
  2
PITCH_DIA
 70
     0
 62
    10
  6
CONTINUOUS
  0
LAYER
  2
DEFPOINTS
 70
     0
 62
     7
  6
CONTINUOUS
  0
ENDTAB
  0
TABLE
  2
STYLE
 70
     2
  0
STYLE
  2
STANDARD
 70
     0
 40
0.0
 41
1.0
 50
0.0
 71
     0
 42
0.2
  3
txt
  4

  0
STYLE
  2
ANNOTATIVE
 70
     0
 40
0.0
 41
1.0
 50
0.0
 71
     0
 42
0.2
  3
txt.shx
  4

  0
ENDTAB
  0
TABLE
  2
VIEW
 70
     0
  0
ENDTAB
  0
TABLE
  2
UCS
 70
     0
  0
ENDTAB
  0
TABLE
  2
APPID
 70
    10
  0
APPID
  2
ACAD
 70
     0
  0
APPID
  2
ACADANNOTATIVE
 70
     0
  0
APPID
  2
ACADANNOPO
 70
     0
  0
APPID
  2
ACAD_DSTYLE_DIMJAG
 70
     0
  0
APPID
  2
ACAD_DSTYLE_DIMTALN
 70
     0
  0
APPID
  2
ACAD_MLEADERVER
 70
     0
  0
APPID
  2
ACAECLAYERSTANDARD
 70
     0
  0
APPID
  2
TB_S_MPD
 70
     0
  0
APPID
  2
ACAD_EXEMPT_FROM_CAD_STANDARDS
 70
     0
  0
APPID
  2
ACAD_NAV_VCDISPLAY
 70
     0
  0
ENDTAB
  0
TABLE
  2
DIMSTYLE
 70
     2
  0
DIMSTYLE
  2
STANDARD
 70
     0
  3

  4

  5

  6

  7

 40
1.0
 41
0.18
 42
0.0625
 43
0.38
 44
0.18
 45
0.0
 46
0.0
 47
0.0
 48
0.0
140
0.18
141
0.09
142
0.0
143
25.3999999999999986
144
1.0
145
0.0
146
1.0
147
0.09
 71
     0
 72
     0
 73
     1
 74
     1
 75
     0
 76
     0
 77
     0
 78
     0
170
     0
171
     2
172
     0
173
     0
174
     0
175
     0
176
     0
177
     0
178
     0
  0
DIMSTYLE
  2
ANNOTATIVE
 70
     0
  3

  4

  5

  6

  7

 40
0.0
 41
0.18
 42
0.0625
 43
0.38
 44
0.18
 45
0.0
 46
0.0
 47
0.0
 48
0.0
140
0.18
141
0.09
142
0.0
143
25.3999999999999986
144
1.0
145
0.0
146
1.0
147
0.09
 71
     0
 72
     0
 73
     1
 74
     1
 75
     0
 76
     0
 77
     0
 78
     0
170
     0
171
     2
172
     0
173
     0
174
     0
175
     0
176
     0
177
     0
178
     0
  0
ENDTAB
  0
ENDSEC
  0
SECTION
  2
BLOCKS
  0
BLOCK
  8
0
  2
$MODEL_SPACE
 70
     0
 10
0.0
 20
0.0
 30
0.0
  3
$MODEL_SPACE
  1

  0
ENDBLK
  5
173E
  8
0
  0
BLOCK
 67
     1
  8
0
  2
$PAPER_SPACE
 70
     0
 10
0.0
 20
0.0
 30
0.0
  3
$PAPER_SPACE
  1

  0
ENDBLK
  5
173A
 67
     1
  8
0
  0
BLOCK
  8
0
  2
*D2
 70
     1
 10
0.0
 20
0.0
 30
0.0
  3
*D2
  1

  0
LINE
  5
398
  8
0
 62
     0
 10
10.5576473555792401
 20
15.7478577982640306
 30
0.0
 11
8.601664070240675
 21
13.1987707519587492
 31
0.0
  0
LINE
  5
399
  8
0
 62
     0
 10
11.0175994388571006
 20
15.4405276417512791
 30
0.0
 11
9.4110724874667717
 21
12.6579413382159292
 31
0.0
  0
ARC
  5
39A
  8
0
 62
     0
 10
13.1320994388577006
 20
19.1029490743548109
 30
0.0
 40
7.2620539027789661
 50
231.0798088980822911
 51
232.4999999999866986
  0
LINE
  5
39B
  8
0
 62
     0
 10
8.5698065023943624
 20
13.4529127869700993
 30
0.0
 11
8.3898065023943609
 21
13.4529127869700993
 31
0.0
  0
ARC
  5
39C
  8
0
 62
     0
 10
13.1320994388577006
 20
19.1029490743548109
 30
0.0
 40
7.2620539027789661
 50
233.9201911018911062
 51
238.5798088980828027
  0
SOLID
  5
39D
  8
0
 62
     0
 10
8.8374252956970967
 20
13.2097503960300298
 30
0.0
 11
8.8733582456890865
 21
13.2578006104403006
 31
0.0
 12
8.7112411274622783
 22
13.3415743532111399
 32
0.0
 13
8.7112411274622783
 23
13.3415743532111399
 33
0.0
  0
SOLID
  5
39E
  8
0
 62
     0
 10
9.3616361059108453
 20
12.9315437748710202
 30
0.0
 11
9.3309944409223302
 21
12.8799580368542799
 31
0.0
 12
9.5010724874668089
 22
12.8138259108971102
 32
0.0
 13
9.5010724874668089
 23
12.8138259108971102
 33
0.0
  0
INSERT
  5
39F
  8
0
  2
*U3
 10
0.0
 20
0.0
 30
0.0
  0
POINT
  5
3A0
  8
DEFPOINTS
 62
     0
 10
9.2302007210996511
 20
12.9781949337198306
 30
0.0
  0
POINT
  5
3A1
  8
DEFPOINTS
 62
     0
 10
11.0488494388571201
 20
15.4946542294878
 30
0.0
  0
POINT
  5
3A2
  8
DEFPOINTS
 62
     0
 10
13.1320994388577006
 20
19.1029490743548109
 30
0.0
  0
POINT
  5
3A3
  8
DEFPOINTS
 62
     0
 10
10.5956949448922906
 20
15.7974423820322301
 30
0.0
  0
POINT
  5
3A4
  8
DEFPOINTS
 62
     0
 10
13.1320994388577006
 20
19.1029490743548109
 30
0.0
  0
ENDBLK
  5
308
  8
0
  0
BLOCK
  8
0
  2
*U3
 70
     1
 10
0.0
 20
0.0
 30
0.0
  3
*U3
  1

  0
TEXT
  5
1606
  8
0
 62
     0
 10
7.0698065023943588
 20
13.3629127869700994
 30
0.0
 40
0.18
  1
7.500000°
  0
ENDBLK
  5
1608
  8
0
  0
BLOCK
  8
0
  2
*D4
 70
     1
 10
0.0
 20
0.0
 30
0.0
  3
*D4
  1

  0
LINE
  5
5F8
  8
0
 62
     0
 10
23.8618076751734307
 20
19.3391824258939309
 30
0.0
 11
23.231086603188281
 21
18.0056347620184702
 31
0.0
  0
LINE
  5
5F9
  8
0
 62
     0
 10
24.3112614853580915
 20
19.2266001072343684
 30
0.0
 11
24.2388777934617607
 21
17.753196210259361
 31
0.0
  0
ARC
  5
5FA
  8
0
 62
     0
 10
24.3695293486218105
 20
20.4126697114779994
 30
0.0
 40
2.4826808168742001
 50
240.5325154253762037
 51
244.6875000000034106
  0
LINE
  5
5FB
  8
0
 62
     0
 10
23.1482252843656617
 20
18.2511608817235214
 30
0.0
 11
22.9682252843656585
 21
18.2511608817235214
 31
0.0
  0
ARC
  5
5FC
  8
0
 62
     0
 10
24.3695293486218105
 20
20.4126697114779994
 30
0.0
 40
2.4826808168742001
 50
248.8424845746303902
 51
263.0325154253771984
  0
SOLID
  5
5FD
  8
0
 62
     0
 10
23.4616124216445598
 20
18.0697753837391417
 30
0.0
 11
23.4852826272991884
 21
18.1249090518945195
 31
0.0
 12
23.3080465200057212
 22
18.1683528347806806
 32
0.0
 13
23.3080465200057212
 23
18.1683528347806806
 33
0.0
  0
SOLID
  5
5FE
  8
0
 62
     0
 10
24.0709224255203296
 20
17.9782139190710986
 30
0.0
 11
24.0658078519609511
 21
17.9184323070377616
 31
0.0
 12
24.2477099748406815
 22
17.9329793923762892
 32
0.0
 13
24.2477099748406815
 23
17.9329793923762892
 33
0.0
  0
INSERT
  5
5FF
  8
0
  2
*U5
 10
0.0
 20
0.0
 30
0.0
  0
POINT
  5
600
  8
DEFPOINTS
 62
     0
 10
23.9250876212334482
 20
17.970094105804499
 30
0.0
  0
POINT
  5
601
  8
DEFPOINTS
 62
     0
 10
24.3695293486218105
 20
20.4126697114779994
 30
0.0
  0
POINT
  5
602
  8
DEFPOINTS
 62
     0
 10
23.8885298685128298
 20
19.39568175671414
 30
0.0
  0
POINT
  5
603
  8
DEFPOINTS
 62
     0
 10
24.3695293486218105
 20
20.4126697114779994
 30
0.0
  0
POINT
  5
604
  8
DEFPOINTS
 62
     0
 10
24.3143282150035489
 20
19.2890248232472103
 30
0.0
  0
ENDBLK
  5
5E9
  8
0
  0
BLOCK
  8
0
  2
*U5
 70
     1
 10
0.0
 20
0.0
 30
0.0
  3
*U5
  1

  0
TEXT
  5
162A
  8
0
 62
     0
 10
21.4682252843656691
 20
18.1611608817235215
 30
0.0
 40
0.18
  1
22.500000°
  0
ENDBLK
  5
162C
  8
0
  0
BLOCK
  8
0
  2
*D6
 70
     1
 10
0.0
 20
0.0
 30
0.0
  3
*D6
  1

  0
LINE
  5
711
  8
0
 62
     0
 10
31.1851697940234907
 20
17.1451528837254799
 30
0.0
 11
30.55875817022768
 21
16.2234161699997301
 31
0.0
  0
LINE
  5
712
  8
0
 62
     0
 10
31.5006452528931504
 20
16.9844101087404518
 30
0.0
 11
31.1231401014814288
 21
15.9358492127911298
 31
0.0
  0
ARC
  5
713
  8
0
 62
     0
 10
31.9791125652396993
 20
18.3134041948883883
 30
0.0
 40
2.3469460919473311
 50
231.4045987995604889
 51
235.7999999999998977
  0
LINE
  5
714
  8
0
 62
     0
 10
30.5150480081077013
 20
16.4791002584981392
 30
0.0
 11
30.3350480081077087
 21
16.4791002584981392
 31
0.0
  0
ARC
  5
715
  8
0
 62
     0
 10
31.9791125652396993
 20
18.3134041948883883
 30
0.0
 40
2.3469460919473311
 50
240.1954012004393064
 51
245.8045987995591872
  0
SOLID
  5
716
  8
0
 62
     0
 10
30.7966794084748088
 20
16.2514582749121992
 30
0.0
 11
30.8284766063401108
 21
16.3023398846343284
 31
0.0
 12
30.6599331782410687
 22
16.3722906733691502
 32
0.0
 13
30.6599331782410687
 23
16.3722906733691502
 33
0.0
  0
SOLID
  5
717
  8
0
 62
     0
 10
31.0284542088617492
 20
16.2004462068206792
 30
0.0
 11
31.0059800458648311
 21
16.1448142735665812
 31
0.0
 12
31.1841129271255717
 22
16.1052077512028902
 32
0.0
 13
31.1841129271255717
 23
16.1052077512028902
 33
0.0
  0
INSERT
  5
718
  8
0
  2
*U7
 10
0.0
 20
0.0
 30
0.0
  0
POINT
  5
719
  8
DEFPOINTS
 62
     0
 10
31.0021239866913589
 20
16.1794760621029887
 30
0.0
  0
POINT
  5
71A
  8
DEFPOINTS
 62
     0
 10
31.9791125652396993
 20
18.3134041948883883
 30
0.0
  0
POINT
  5
71B
  8
DEFPOINTS
 62
     0
 10
31.5218163729084786
 20
17.0432151568000911
 30
0.0
  0
POINT
  5
71C
  8
DEFPOINTS
 62
     0
 10
31.9791125652396993
 20
18.3134041948883883
 30
0.0
  0
POINT
  5
71D
  8
DEFPOINTS
 62
     0
 10
31.2203000051392401
 20
17.1968454196176417
 30
0.0
  0
ENDBLK
  5
702
  8
0
  0
BLOCK
  8
0
  2
*U7
 70
     1
 10
0.0
 20
0.0
 30
0.0
  3
*U7
  1

  0
TEXT
  5
163E
  8
0
 62
     0
 10
28.8950480081076897
 20
16.3891002584981393
 30
0.0
 40
0.18
  1
14.400000°
  0
ENDBLK
  5
1640
  8
0
  0
BLOCK
  8
0
  2
*D8
 70
     1
 10
0.0
 20
0.0
 30
0.0
  3
*D8
  1

  0
LINE
  5
827
  8
0
 62
     0
 10
38.9263273771272509
 20
17.6433223122388085
 30
0.0
 11
37.9780978334490484
 21
17.0622465005352204
 31
0.0
  0
LINE
  5
828
  8
0
 62
     0
 10
39.1039904246324213
 20
17.4117873209137883
 30
0.0
 11
38.2972944260432584
 21
16.6462614021419917
 31
0.0
  0
ARC
  5
829
  8
0
 62
     0
 10
40.1166130465655684
 20
18.3727303085823017
 30
0.0
 40
2.328109871573496
 50
207.0690189204345018
 51
211.5000000000007958
  0
LINE
  5
82A
  8
0
 62
     0
 10
38.0435266641583922
 20
17.3132925212649909
 30
0.0
 11
37.8635266641583712
 21
17.3132925212649909
 31
0.0
  0
ARC
  5
82B
  8
0
 62
     0
 10
40.1166130465655684
 20
18.3727303085823017
 30
0.0
 40
2.328109871573496
 50
215.9309810795670046
 51
219.0690189204343881
  0
SOLID
  5
82C
  8
0
 62
     0
 10
38.2065314208376421
 20
16.9899194271070009
 30
0.0
 11
38.2564396658461803
 21
17.023223587210051
 31
0.0
 12
38.131573063032782
 22
17.1562962421841014
 32
0.0
 13
38.131573063032782
 23
17.1562962421841014
 33
0.0
  0
SOLID
  5
82D
  8
0
 62
     0
 10
38.331641353518549
 20
16.9252188397549403
 30
0.0
 11
38.2865548008362921
 21
16.8856309278722492
 31
0.0
 12
38.4278618128254834
 22
16.7701652257668705
 32
0.0
 13
38.4278618128254834
 23
16.7701652257668705
 33
0.0
  0
INSERT
  5
82E
  8
0
  2
*U9
 10
0.0
 20
0.0
 30
0.0
  0
POINT
  5
82F
  8
DEFPOINTS
 62
     0
 10
38.3201862368318515
 20
16.8918703248607187
 30
0.0
  0
POINT
  5
830
  8
DEFPOINTS
 62
     0
 10
39.1493263228206914
 20
17.4548094818946602
 30
0.0
  0
POINT
  5
831
  8
DEFPOINTS
 62
     0
 10
40.1166130465655684
 20
18.3727303085823017
 30
0.0
  0
POINT
  5
832
  8
DEFPOINTS
 62
     0
 10
38.9796173873993794
 20
17.6759784725335507
 30
0.0
  0
POINT
  5
833
  8
DEFPOINTS
 62
     0
 10
40.1166130465655684
 20
18.3727303085823017
 30
0.0
  0
ENDBLK
  5
818
  8
0
  0
BLOCK
  8
0
  2
*U9
 70
     1
 10
0.0
 20
0.0
 30
0.0
  3
*U9
  1

  0
TEXT
  5
164E
  8
0
 62
     0
 10
36.4535266641583817
 20
17.223292521264991
 30
0.0
 40
0.18
  1
12.000000°
  0
ENDBLK
  5
1650
  8
0
  0
BLOCK
  8
0
  2
*D10
 70
     1
 10
0.0
 20
0.0
 30
0.0
  3
*D10
  1

  0
LINE
  5
942
  8
0
 62
     0
 10
45.3581516010802375
 20
17.8494125607364502
 30
0.0
 11
45.0765150259251968
 21
17.4046598071173584
 31
0.0
  0
LINE
  5
943
  8
0
 62
     0
 10
45.5551420073513782
 20
17.7502559229532899
 30
0.0
 11
45.3656839579372431
 21
17.2591043986463504
 31
0.0
  0
ARC
  5
944
  8
0
 62
     0
 10
45.9600239234531429
 20
18.7998728216422002
 30
0.0
 40
1.471425846930638
 50
223.6030273396310122
 51
237.6562499999994031
  0
LINE
  5
945
  8
0
 62
     0
 10
44.8945123454194288
 20
17.7850925005422695
 30
0.0
 11
44.7145123454194504
 21
17.7850925005422695
 31
0.0
  0
ARC
  5
946
  8
0
 62
     0
 10
45.9600239234531429
 20
18.7998728216422002
 30
0.0
 40
1.471425846930638
 50
223.6294721045595963
 51
230.6428610522794997
  0
ARC
  5
947
  8
0
 62
     0
 10
45.9600239234531429
 20
18.7998728216422002
 30
0.0
 40
1.471425846930638
 50
255.9196389477214097
 51
262.9330278954412279
  0
SOLID
  5
948
  8
0
 62
     0
 10
45.0444860142049421
 20
17.6864707785258588
 30
0.0
 11
45.0093457226005569
 21
17.6378378688251516
 31
0.0
 12
45.1728145975048818
 22
17.5567334488622997
 32
0.0
 13
45.1728145975048818
 23
17.5567334488622997
 33
0.0
  0
SOLID
  5
949
  8
0
 62
     0
 10
45.5929870405507529
 20
17.3440575175139102
 30
0.0
 11
45.6111163126317791
 21
17.4012530548731483
 31
0.0
 12
45.4304650645135411
 22
17.427043102436599
 32
0.0
 13
45.4304650645135411
 23
17.427043102436599
 33
0.0
  0
INSERT
  5
94A
  8
0
  2
*U11
 10
0.0
 20
0.0
 30
0.0
  0
POINT
  5
94B
  8
DEFPOINTS
 62
     0
 10
45.3418115311440175
 20
17.4646172427319506
 30
0.0
  0
POINT
  5
94C
  8
DEFPOINTS
 62
     0
 10
45.5776354471348029
 20
17.8085679728804607
 30
0.0
  0
POINT
  5
94D
  8
DEFPOINTS
 62
     0
 10
45.9600239234531429
 20
18.7998728216422002
 30
0.0
  0
POINT
  5
94E
  8
DEFPOINTS
 62
     0
 10
45.3915889523231826
 20
17.9022159085645605
 30
0.0
  0
POINT
  5
94F
  8
DEFPOINTS
 62
     0
 10
45.9600239234531429
 20
18.7998728216422002
 30
0.0
  0
ENDBLK
  5
932
  8
0
  0
BLOCK
  8
0
  2
*U11
 70
     1
 10
0.0
 20
0.0
 30
0.0
  3
*U11
  1

  0
TEXT
  5
165A
  8
0
 62
     0
 10
43.3045123454194467
 20
17.695092500542259
 30
0.0
 40
0.18
  1
11.250000°
  0
ENDBLK
  5
165C
  8
0
  0
BLOCK
  8
0
  2
*D12
 70
     1
 10
0.0
 20
0.0
 30
0.0
  3
*D12
  1

  0
LINE
  5
F1E
  8
0
 62
     0
 10
50.8852268903486475
 20
17.8165079397692097
 30
0.0
 11
50.4164741582685423
 21
17.0762664841119793
 31
0.0
  0
LINE
  5
F1F
  8
0
 62
     0
 10
51.0450079976574713
 20
17.7360808891228707
 30
0.0
 11
50.7296761618384124
 21
16.91861384402252
 31
0.0
  0
ARC
  5
F20
  8
0
 62
     0
 10
51.3734122184955311
 20
18.5874368180592917
 30
0.0
 40
1.608677228935792
 50
224.8073295069536073
 51
237.656249999997101
  0
LINE
  5
F21
  8
0
 62
     0
 10
50.232086947247069
 20
17.4537617975590784
 30
0.0
 11
50.0520869472470693
 21
17.4537617975590784
 31
0.0
  0
ARC
  5
F22
  8
0
 62
     0
 10
51.3734122184955311
 20
18.5874368180592917
 30
0.0
 40
1.608677228935792
 50
224.8275385246716951
 51
231.2418942623345117
  0
ARC
  5
F23
  8
0
 62
     0
 10
51.3734122184955311
 20
18.5874368180592917
 30
0.0
 40
1.608677228935792
 50
255.3206057376636977
 51
261.7349614753263722
  0
SOLID
  5
F24
  8
0
 62
     0
 10
50.3837686945720407
 20
17.3574048416912206
 30
0.0
 11
50.3488831129650407
 21
17.3085888996646489
 31
0.0
 12
50.5127737298482415
 22
17.2283401258569207
 32
0.0
 13
50.5127737298482415
 23
17.2283401258569207
 33
0.0
  0
SOLID
  5
F25
  8
0
 62
     0
 10
50.9565432144193267
 20
17.0027185087367982
 30
0.0
 11
50.9749712300112918
 21
17.0598184933370085
 31
0.0
 12
50.7944572684147104
 22
17.0865525478127793
 32
0.0
 13
50.7944572684147104
 23
17.0865525478127793
 33
0.0
  0
INSERT
  5
F26
  8
0
  2
*U13
 10
0.0
 20
0.0
 30
0.0
  0
POINT
  5
F27
  8
DEFPOINTS
 62
     0
 10
50.6975343275177721
 20
17.127631521663929
 30
0.0
  0
POINT
  5
F28
  8
DEFPOINTS
 62
     0
 10
51.0675014374409102
 20
17.7943929390500415
 30
0.0
  0
POINT
  5
F29
  8
DEFPOINTS
 62
     0
 10
51.3734122184955311
 20
18.5874368180592917
 30
0.0
  0
POINT
  5
F2A
  8
DEFPOINTS
 62
     0
 10
50.9186642415915998
 20
17.8693112875973092
 30
0.0
  0
POINT
  5
F2B
  8
DEFPOINTS
 62
     0
 10
51.3734122184955311
 20
18.5874368180592917
 30
0.0
  0
ENDBLK
  5
F0E
  8
0
  0
BLOCK
  8
0
  2
*U13
 70
     1
 10
0.0
 20
0.0
 30
0.0
  3
*U13
  1

  0
TEXT
  5
1666
  8
0
 62
     0
 10
48.6420869472470585
 20
17.3637617975590786
 30
0.0
 40
0.18
  1
11.250000°
  0
ENDBLK
  5
1668
  8
0
  0
BLOCK
  8
0
  2
*D14
 70
     1
 10
0.0
 20
0.0
 30
0.0
  3
*D14
  1

  0
LINE
  5
1013
  8
0
 62
     0
 10
57.0036188950553822
 20
17.5498797936761903
 30
0.0
 11
56.253444275854541
 21
16.5769225576975394
 31
0.0
  0
LINE
  5
1014
  8
0
 62
     0
 10
57.1211796789220827
 20
17.4693274352118983
 30
0.0
 11
56.4846586474674623
 21
16.4184950418911306
 31
0.0
  0
ARC
  5
1015
  8
0
 62
     0
 10
57.7795831036563001
 20
18.5562854654956411
 30
0.0
 40
2.3193953753840422
 50
223.4648754529553116
 51
232.3668685665890905
  0
LINE
  5
1016
  8
0
 62
     0
 10
56.0961747008403506
 20
16.9607507411221903
 30
0.0
 11
55.9161747008403509
 21
16.9607507411221903
 31
0.0
  0
ARC
  5
1017
  8
0
 62
     0
 10
57.7795831036563001
 20
18.5562854654956304
 30
0.0
 40
2.3193953753840422
 50
223.4715933006775117
 51
227.9192309336332869
  0
ARC
  5
1018
  8
0
 62
     0
 10
57.7795831036563001
 20
18.5562854654956304
 30
0.0
 40
2.3193953753840422
 50
243.2430776281165095
 51
247.6907152610723983
  0
SOLID
  5
1019
  8
0
 62
     0
 10
56.2444026027786492
 20
16.8578577152791595
 30
0.0
 11
56.2059502207720669
 21
16.8117989015947096
 31
0.0
 12
56.3633528528287115
 22
16.719471162417161
 32
0.0
 13
56.3633528528287115
 23
16.719471162417161
 33
0.0
  0
SOLID
  5
101A
  8
0
 62
     0
 10
56.720841165308002
 20
16.4589968993445908
 30
0.0
 11
56.7499121017416925
 21
16.5114838563422097
 31
0.0
 12
56.5779157625320224
 22
16.5724531871444185
 32
0.0
 13
56.5779157625320224
 23
16.5724531871444185
 33
0.0
  0
INSERT
  5
101B
  8
0
  2
*U15
 10
0.0
 20
0.0
 30
0.0
  0
POINT
  5
101C
  8
DEFPOINTS
 62
     0
 10
56.504578224618129
 20
16.6187722485647917
 30
0.0
  0
POINT
  5
101D
  8
DEFPOINTS
 62
     0
 10
57.7795831036563001
 20
18.5562854654956411
 30
0.0
  0
POINT
  5
101E
  8
DEFPOINTS
 62
     0
 10
57.1535606216528222
 20
17.5227851245359716
 30
0.0
  0
POINT
  5
101F
  8
DEFPOINTS
 62
     0
 10
57.7795831036563001
 20
18.5562854654956411
 30
0.0
  0
POINT
  5
1020
  8
DEFPOINTS
 62
     0
 10
57.0417815953936298
 20
17.5993758369816113
 30
0.0
  0
ENDBLK
  5
1003
  8
0
  0
BLOCK
  8
0
  2
*U15
 70
     1
 10
0.0
 20
0.0
 30
0.0
  3
*U15
  1

  0
TEXT
  5
1672
  8
0
 62
     0
 10
54.5061747008403401
 20
16.8707507411221798
 30
0.0
 40
0.18
  1
6.428571°
  0
ENDBLK
  5
1674
  8
0
  0
BLOCK
  8
0
  2
*D16
 70
     1
 10
0.0
 20
0.0
 30
0.0
  3
*D16
  1

  0
LINE
  5
11E7
  8
0
 62
     0
 10
63.4810369225996425
 20
18.4486173294664013
 30
0.0
 11
63.2396718438633627
 21
18.0604707093781585
 31
0.0
  0
LINE
  5
11E8
  8
0
 62
     0
 10
63.5925572309223526
 20
18.3980881351439614
 30
0.0
 11
63.4598762053776184
 21
17.9606974112142908
 31
0.0
  0
ARC
  5
11E9
  8
0
 62
     0
 10
63.7287007445547289
 20
18.8468931526024086
 30
0.0
 40
0.7460720948815226
 50
210.2027441403953958
 51
238.1249999999988916
  0
LINE
  5
11EA
  8
0
 62
     0
 10
63.0839074074526565
 20
18.4715731249064916
 30
0.0
 11
62.9039074074526567
 21
18.471573124906481
 31
0.0
  0
ARC
  5
11EB
  8
0
 62
     0
 10
63.7287007445547289
 20
18.8468931526024086
 30
0.0
 40
0.7460720948815226
 50
210.4107383344785944
 51
224.2678691672387004
  0
ARC
  5
11EC
  8
0
 62
     0
 10
63.7287007445547289
 20
18.8468931526024086
 30
0.0
 40
0.7460720948815226
 50
266.9821308327560132
 51
280.8392616655161191
  0
SOLID
  5
11ED
  8
0
 62
     0
 10
63.2132498114172492
 20
18.3495034864404793
 30
0.0
 11
63.1756506729976834
 21
18.3027455481828305
 31
0.0
 12
63.33472405698042
 22
18.2133271020529399
 32
0.0
 13
63.33472405698042
 23
18.2133271020529399
 33
0.0
  0
SOLID
  5
11EE
  8
0
 62
     0
 10
63.6842401646296068
 20
18.0723066475059788
 30
0.0
 11
63.6946038093590516
 21
18.1314048274096002
 31
0.0
 12
63.512127447283433
 22
18.1329466716460885
 32
0.0
 13
63.512127447283433
 23
18.1329466716460885
 33
0.0
  0
INSERT
  5
11EF
  8
0
  2
*U17
 10
0.0
 20
0.0
 30
0.0
  0
POINT
  5
11F0
  8
DEFPOINTS
 62
     0
 10
63.4507270382349873
 20
18.1545390601354413
 30
0.0
  0
POINT
  5
11F1
  8
DEFPOINTS
 62
     0
 10
63.6107000232507502
 20
18.4578969061272211
 30
0.0
  0
POINT
  5
11F2
  8
DEFPOINTS
 62
     0
 10
63.7287007445547289
 20
18.8468931526024086
 30
0.0
  0
POINT
  5
11F3
  8
DEFPOINTS
 62
     0
 10
63.5140411632653112
 20
18.5016924658118107
 30
0.0
  0
POINT
  5
11F4
  8
DEFPOINTS
 62
     0
 10
63.7287007445547289
 20
18.8468931526024086
 30
0.0
  0
ENDBLK
  5
10EC
  8
0
  0
BLOCK
  8
0
  2
*U17
 70
     1
 10
0.0
 20
0.0
 30
0.0
  3
*U17
  1

  0
TEXT
  5
169E
  8
0
 62
     0
 10
61.4939074074526602
 20
18.3815731249064918
 30
0.0
 40
0.18
  1
15.000000°
  0
ENDBLK
  5
16A0
  8
0
  0
BLOCK
  8
0
  2
*D18
 70
     1
 10
0.0
 20
0.0
 30
0.0
  3
*D18
  1

  0
LINE
  5
111B
  8
0
 62
     0
 10
63.6796527615675174
 20
18.4698977343743316
 30
0.0
 11
65.5379808849186389
 21
17.9061800611013915
 31
0.0
  0
LINE
  5
111C
  8
0
 62
     0
 10
63.7885095155380029
 20
18.8287503602740109
 30
0.0
 11
65.6468376388891102
 21
18.2650326870010602
 31
0.0
  0
LINE
  5
111D
  8
0
 62
     0
 10
65.3134803825810479
 20
17.7861820425754082
 30
0.0
 11
65.2612291406752121
 21
17.6139327821436105
 31
0.0
  0
LINE
  5
111E
  8
0
 62
     0
 10
65.526839620363134
 20
18.489533189338669
 30
0.0
 11
65.5790908622689699
 21
18.6617824497704703
 31
0.0
  0
LINE
  5
111F
  8
0
 62
     0
 10
65.5790908622689699
 20
18.6617824497704703
 30
0.0
 11
65.7590908622689483
 21
18.6617824497704703
 31
0.0
  0
SOLID
  5
1120
  8
0
 62
     0
 10
65.2847721725090651
 20
17.7948905828930499
 30
0.0
 11
65.3421885926530024
 21
17.7774735022577808
 31
0.0
 12
65.3657316244868412
 22
17.9584313030071989
 32
0.0
 13
65.3657316244868412
 23
17.9584313030071989
 33
0.0
  0
SOLID
  5
1121
  8
0
 62
     0
 10
65.4981314102911796
 20
18.4982417296563106
 30
0.0
 11
65.5555478304351027
 21
18.4808246490210415
 31
0.0
 12
65.4745883784573266
 22
18.3172839289068783
 32
0.0
 13
65.4745883784573266
 23
18.3172839289068783
 33
0.0
  0
INSERT
  5
1122
  8
0
  2
*U19
 10
0.0
 20
0.0
 30
0.0
  0
POINT
  5
1123
  8
DEFPOINTS
 62
     0
 10
63.6198439905842505
 20
18.4880405267027506
 30
0.0
  0
POINT
  5
1124
  8
DEFPOINTS
 62
     0
 10
63.7287007445547502
 20
18.8468931526024086
 30
0.0
  0
POINT
  5
1125
  8
DEFPOINTS
 62
     0
 10
65.4745883784573266
 20
18.3172839289068783
 30
0.0
  0
ENDBLK
  5
110E
  8
0
  0
BLOCK
  8
0
  2
*U19
 70
     1
 10
0.0
 20
0.0
 30
0.0
  3
*U19
  1

  0
TEXT
  5
167E
  8
0
 62
     0
 10
65.8490908622689517
 20
18.5717824497704598
 30
0.0
 40
0.18
  1
0.3750000
  0
ENDBLK
  5
1680
  8
0
  0
BLOCK
  8
0
  2
*D20
 70
     1
 10
0.0
 20
0.0
 30
0.0
  3
*D20
  1

  0
LINE
  5
1137
  8
0
 62
     0
 10
57.116719070018469
 20
17.5942100203852085
 30
0.0
 11
59.0912871220173415
 21
16.0717681475885605
 31
0.0
  0
LINE
  5
1138
  8
0
 62
     0
 10
57.8290791469617389
 20
18.5181227651573685
 30
0.0
 11
59.8036471989606113
 21
16.9956808923607312
 31
0.0
  0
LINE
  5
1139
  8
0
 62
     0
 10
59.0586470942718975
 20
16.3242253292823598
 30
0.0
 11
59.5511900172668192
 21
16.9630408646152908
 31
0.0
  0
LINE
  5
113A
  8
0
 62
     0
 10
59.6610985942409968
 20
17.1055894693349089
 30
0.0
 11
59.7710071712151887
 21
17.2481380740545305
 31
0.0
  0
LINE
  5
113B
  8
0
 62
     0
 10
59.7710071712151887
 20
17.2481380740545305
 30
0.0
 11
59.9510071712151813
 21
17.2481380740545305
 31
0.0
  0
SOLID
  5
113C
  8
0
 62
     0
 10
59.0348889934853105
 20
16.342543425444731
 30
0.0
 11
59.0824051950584987
 21
16.3059072331199992
 31
0.0
 12
58.948738517297727
 22
16.1816767245627489
 32
0.0
 13
58.948738517297727
 23
16.1816767245627489
 33
0.0
  0
SOLID
  5
113D
  8
0
 62
     0
 10
59.5274319164802108
 20
16.9813589607776585
 30
0.0
 11
59.5749481180533991
 21
16.9447227684529302
 31
0.0
 12
59.6610985942409968
 22
17.1055894693349089
 32
0.0
 13
59.6610985942409968
 23
17.1055894693349089
 33
0.0
  0
INSERT
  5
113E
  8
0
  2
*U21
 10
0.0
 20
0.0
 30
0.0
  0
POINT
  5
113F
  8
DEFPOINTS
 62
     0
 10
57.0672230267130374
 20
17.6323727207234704
 30
0.0
  0
POINT
  5
1140
  8
DEFPOINTS
 62
     0
 10
57.7795831036563214
 20
18.5562854654956411
 30
0.0
  0
POINT
  5
1141
  8
DEFPOINTS
 62
     0
 10
59.6610985942409968
 20
17.1055894693349089
 30
0.0
  0
ENDBLK
  5
112A
  8
0
  0
BLOCK
  8
0
  2
*U21
 70
     1
 10
0.0
 20
0.0
 30
0.0
  3
*U21
  1

  0
TEXT
  5
1682
  8
0
 62
     0
 10
60.0410071712151776
 20
17.15813807405452
 30
0.0
 40
0.18
  1
1.1666498
  0
ENDBLK
  5
1684
  8
0
  0
BLOCK
  8
0
  2
*D22
 70
     1
 10
0.0
 20
0.0
 30
0.0
  3
*D22
  1

  0
LINE
  5
1153
  8
0
 62
     0
 10
51.1438082391947475
 20
17.818549139208109
 30
0.0
 11
52.624016616249321
 21
17.247569761227119
 31
0.0
  0
LINE
  5
1154
  8
0
 62
     0
 10
51.4317242684226912
 20
18.5649433782758706
 30
0.0
 11
52.9119326454772931
 21
17.99396400029487
 31
0.0
  0
LINE
  5
1155
  8
0
 62
     0
 10
52.520859019035349
 20
17.4802895715936586
 30
0.0
 11
52.679212835110711
 21
17.8908064030809086
 31
0.0
  0
LINE
  5
1156
  8
0
 62
     0
 10
52.7439939416870232
 20
18.0587451068711609
 30
0.0
 11
52.8087750482633211
 21
18.2266838106614308
 31
0.0
  0
LINE
  5
1157
  8
0
 62
     0
 10
52.8087750482633211
 20
18.2266838106614308
 30
0.0
 11
52.9887750482632924
 21
18.2266838106614308
 31
0.0
  0
SOLID
  5
1158
  8
0
 62
     0
 10
52.492869235070323
 20
17.4910864226897083
 30
0.0
 11
52.5488488030003893
 21
17.4694927204976089
 31
0.0
 12
52.456077912459051
 22
17.3123508678034099
 32
0.0
 13
52.456077912459051
 23
17.3123508678034099
 33
0.0
  0
SOLID
  5
1159
  8
0
 62
     0
 10
52.6512230511456778
 20
17.9016032541769583
 30
0.0
 11
52.7072026190757725
 21
17.8800095519848696
 31
0.0
 12
52.7439939416870232
 22
18.0587451068711609
 32
0.0
 13
52.7439939416870232
 23
18.0587451068711609
 33
0.0
  0
INSERT
  5
115A
  8
0
  2
*U23
 10
0.0
 20
0.0
 30
0.0
  0
POINT
  5
115B
  8
DEFPOINTS
 62
     0
 10
51.085496189267559
 20
17.8410425789915514
 30
0.0
  0
POINT
  5
115C
  8
DEFPOINTS
 62
     0
 10
51.3734122184955311
 20
18.5874368180593095
 30
0.0
  0
POINT
  5
115D
  8
DEFPOINTS
 62
     0
 10
52.7439939416870232
 20
18.0587451068711609
 30
0.0
  0
ENDBLK
  5
1146
  8
0
  0
BLOCK
  8
0
  2
*U23
 70
     1
 10
0.0
 20
0.0
 30
0.0
  3
*U23
  1

  0
TEXT
  5
1686
  8
0
 62
     0
 10
53.0787750482633314
 20
18.1366838106614097
 30
0.0
 40
0.18
  1
0.8000000
  0
ENDBLK
  5
1688
  8
0
  0
BLOCK
  8
0
  2
*D24
 70
     1
 10
0.0
 20
0.0
 30
0.0
  3
*D24
  1

  0
LINE
  5
116E
  8
0
 62
     0
 10
45.6584409368453379
 20
17.8443865830240185
 30
0.0
 11
47.3219046015841016
 21
17.2027178400889618
 31
0.0
  0
LINE
  5
116F
  8
0
 62
     0
 10
46.0183359733803101
 20
18.7773793818587613
 30
0.0
 11
47.681799638119081
 21
18.1357106389237117
 31
0.0
  0
LINE
  5
1170
  8
0
 62
     0
 10
47.2187470043701296
 20
17.4354376504555084
 30
0.0
 11
47.2644797541325303
 21
17.5539953460826403
 31
0.0
  0
LINE
  5
1171
  8
0
 62
     0
 10
47.449079827752513
 20
18.0325530417097504
 30
0.0
 11
47.4033470779901265
 21
17.9139953460826398
 31
0.0
  0
SOLID
  5
1172
  8
0
 62
     0
 10
47.1907572204050965
 20
17.4462345015515616
 30
0.0
 11
47.2467367883351699
 21
17.4246407993594588
 31
0.0
 12
47.1539658977938529
 22
17.2674989466652598
 32
0.0
 13
47.1539658977938529
 23
17.2674989466652598
 33
0.0
  0
SOLID
  5
1173
  8
0
 62
     0
 10
47.4210900437874869
 20
18.0433498928058
 30
0.0
 11
47.4770696117175675
 21
18.0217561906137007
 31
0.0
 12
47.5138609343288181
 22
18.200491745499999
 32
0.0
 13
47.5138609343288181
 23
18.200491745499999
 33
0.0
  0
INSERT
  5
1174
  8
0
  2
*U25
 10
0.0
 20
0.0
 30
0.0
  0
POINT
  5
1175
  8
DEFPOINTS
 62
     0
 10
45.6001288869181707
 20
17.8668800228074609
 30
0.0
  0
POINT
  5
1176
  8
DEFPOINTS
 62
     0
 10
45.9600239234531429
 20
18.7998728216422002
 30
0.0
  0
POINT
  5
1177
  8
DEFPOINTS
 62
     0
 10
47.5138609343288181
 20
18.200491745499999
 30
0.0
  0
ENDBLK
  5
1162
  8
0
  0
BLOCK
  8
0
  2
*U25
 70
     1
 10
0.0
 20
0.0
 30
0.0
  3
*U25
  1

  0
TEXT
  5
168A
  8
0
 62
     0
 10
46.7489134160613418
 20
17.6439953460826402
 30
0.0
 40
0.18
  1
1.0000000
  0
ENDBLK
  5
168C
  8
0
  0
BLOCK
  8
0
  2
*D26
 70
     1
 10
0.0
 20
0.0
 30
0.0
  3
*D26
  1

  0
LINE
  5
1189
  8
0
 62
     0
 10
39.2529172437810914
 20
17.4669511907768289
 30
0.0
 11
40.6765831053117211
 21
15.9667204008548609
 31
0.0
  0
LINE
  5
118A
  8
0
 62
     0
 10
40.1596352075464367
 20
18.3273944103940316
 30
0.0
 11
41.5833010690770735
 21
16.8271636204720707
 31
0.0
  0
LINE
  5
118B
  8
0
 62
     0
 10
40.6832466684690601
 20
16.2211916112619505
 30
0.0
 11
41.3288298586699909
 21
16.8338271836293991
 31
0.0
  0
LINE
  5
118C
  8
0
 62
     0
 10
41.4593972454522088
 20
16.9577310072542815
 30
0.0
 11
41.5899646322344125
 21
17.0816348308791497
 31
0.0
  0
LINE
  5
118D
  8
0
 62
     0
 10
41.5899646322344125
 20
17.0816348308791497
 30
0.0
 11
41.769964632234398
 21
17.0816348308791603
 31
0.0
  0
SOLID
  5
118E
  8
0
 62
     0
 10
40.6625960311982411
 20
16.2429528423923202
 30
0.0
 11
40.7038973057398792
 21
16.1994303801315809
 31
0.0
 12
40.5526792816868422
 22
16.0972877876370788
 32
0.0
 13
40.5526792816868422
 23
16.0972877876370788
 33
0.0
  0
SOLID
  5
118F
  8
0
 62
     0
 10
41.3081792213991719
 20
16.8555884147597688
 30
0.0
 11
41.3494804959408171
 21
16.8120659524990188
 31
0.0
 12
41.4593972454522088
 22
16.9577310072542815
 32
0.0
 13
41.4593972454522088
 23
16.9577310072542815
 33
0.0
  0
INSERT
  5
1190
  8
0
  2
*U27
 10
0.0
 20
0.0
 30
0.0
  0
POINT
  5
1191
  8
DEFPOINTS
 62
     0
 10
39.2098950828002302
 20
17.512287088965099
 30
0.0
  0
POINT
  5
1192
  8
DEFPOINTS
 62
     0
 10
40.1166130465655684
 20
18.3727303085823017
 30
0.0
  0
POINT
  5
1193
  8
DEFPOINTS
 62
     0
 10
41.4593972454522088
 20
16.9577310072542815
 30
0.0
  0
ENDBLK
  5
117C
  8
0
  0
BLOCK
  8
0
  2
*U27
 70
     1
 10
0.0
 20
0.0
 30
0.0
  3
*U27
  1

  0
TEXT
  5
168E
  8
0
 62
     0
 10
41.8599646322344228
 20
16.9916348308791605
 30
0.0
 40
0.18
  1
1.2500000
  0
ENDBLK
  5
1690
  8
0
  0
BLOCK
  8
0
  2
*D28
 70
     1
 10
0.0
 20
0.0
 30
0.0
  3
*D28
  1

  0
LINE
  5
11A4
  8
0
 62
     0
 10
31.6144952129925905
 20
17.1161321136800311
 30
0.0
 11
33.8446448999584817
 21
16.3132288216526895
 31
0.0
  0
LINE
  5
11A5
  8
0
 62
     0
 10
32.0379176132993209
 20
18.2922330748730602
 30
0.0
 11
34.2680673002652085
 21
17.4893297828457115
 31
0.0
  0
LINE
  5
11A6
  8
0
 62
     0
 10
33.7362591871908819
 20
16.5435601857086105
 30
0.0
 11
33.8221935741428368
 21
16.7822521278933507
 31
0.0
  0
LINE
  5
11A7
  8
0
 62
     0
 10
34.0377359362092875
 20
17.380944070078101
 30
0.0
 11
33.9518015492573184
 21
17.1422521278933608
 31
0.0
  0
SOLID
  5
11A8
  8
0
 62
     0
 10
33.708032764122251
 20
16.5537223233159594
 30
0.0
 11
33.7644856102594915
 21
16.533398048101251
 31
0.0
 12
33.6752863615467177
 22
16.3742016472968501
 32
0.0
 13
33.6752863615467177
 23
16.3742016472968501
 33
0.0
  0
SOLID
  5
11A9
  8
0
 62
     0
 10
34.0095095131406566
 20
17.3911062076854712
 30
0.0
 11
34.0659623592779184
 21
17.3707819324707486
 31
0.0
 12
34.0987087618534375
 22
17.5503026084898615
 32
0.0
 13
34.0987087618534375
 23
17.5503026084898615
 33
0.0
  0
INSERT
  5
11AA
  8
0
  2
*U29
 10
0.0
 20
0.0
 30
0.0
  0
POINT
  5
11AB
  8
DEFPOINTS
 62
     0
 10
31.5556901649329511
 20
17.1373032336953699
 30
0.0
  0
POINT
  5
11AC
  8
DEFPOINTS
 62
     0
 10
31.9791125652396815
 20
18.3134041948883883
 30
0.0
  0
POINT
  5
11AD
  8
DEFPOINTS
 62
     0
 10
34.0987087618534375
 20
17.5503026084898615
 30
0.0
  0
ENDBLK
  5
1198
  8
0
  0
BLOCK
  8
0
  2
*U29
 70
     1
 10
0.0
 20
0.0
 30
0.0
  3
*U29
  1

  0
TEXT
  5
1692
  8
0
 62
     0
 10
33.2719975617000898
 20
16.8722521278933613
 30
0.0
 40
0.18
  1
1.2500000
  0
ENDBLK
  5
1694
  8
0
  0
BLOCK
  8
0
  2
*D30
 70
     1
 10
0.0
 20
0.0
 30
0.0
  3
*D30
  1

  0
LINE
  5
11BE
  8
0
 62
     0
 10
24.3828863903072985
 20
19.41080752562738
 30
0.0
 11
26.7795074572222411
 21
19.2930690825188904
 31
0.0
  0
LINE
  5
11BF
  8
0
 62
     0
 10
24.4319540646346383
 20
20.4096029818325384
 30
0.0
 11
26.8285751315495808
 21
20.2918645387240488
 31
0.0
  0
LINE
  5
11C0
  8
0
 62
     0
 10
26.6085564564842301
 20
19.4816844460147287
 30
0.0
 11
26.6154152793104899
 21
19.6212989920003906
 31
0.0
  0
LINE
  5
11C1
  8
0
 62
     0
 10
26.6399597680537283
 20
20.1209135379860413
 30
0.0
 11
26.6331009452274685
 21
19.9812989920003901
 31
0.0
  0
SOLID
  5
11C2
  8
0
 62
     0
 10
26.5785925927980706
 20
19.4831564762445595
 30
0.0
 11
26.6385203201703789
 21
19.4802124157849192
 31
0.0
 12
26.5997242751053093
 22
19.3019012638978111
 32
0.0
 13
26.5997242751053093
 23
19.3019012638978111
 33
0.0
  0
SOLID
  5
11C3
  8
0
 62
     0
 10
26.6099959043675796
 20
20.1223855682158614
 30
0.0
 11
26.6699236317398913
 21
20.1194415077562105
 31
0.0
 12
26.6487919494326491
 22
20.3006967201029696
 32
0.0
 13
26.6487919494326491
 23
20.3006967201029696
 33
0.0
  0
INSERT
  5
11C4
  8
0
  2
*U31
 10
0.0
 20
0.0
 30
0.0
  0
POINT
  5
11C5
  8
DEFPOINTS
 62
     0
 10
24.3204616742944708
 20
19.4138742552728409
 30
0.0
  0
POINT
  5
11C6
  8
DEFPOINTS
 62
     0
 10
24.3695293486218212
 20
20.4126697114779994
 30
0.0
  0
POINT
  5
11C7
  8
DEFPOINTS
 62
     0
 10
26.6487919494326491
 20
20.3006967201029696
 30
0.0
  0
ENDBLK
  5
11B2
  8
0
  0
BLOCK
  8
0
  2
*U31
 70
     1
 10
0.0
 20
0.0
 30
0.0
  3
*U31
  1

  0
TEXT
  5
1696
  8
0
 62
     0
 10
26.0392581122689784
 20
19.7112989920003905
 30
0.0
 40
0.18
  1
1.0000000
  0
ENDBLK
  5
1698
  8
0
  0
BLOCK
  8
0
  2
*D32
 70
     1
 10
0.0
 20
0.0
 30
0.0
  3
*D32
  1

  0
LINE
  5
11D9
  8
0
 62
     0
 10
11.1862260265934506
 20
15.6075974592174997
 30
0.0
 11
16.5977890025473798
 21
12.4832301183138394
 31
0.0
  0
LINE
  5
11DA
  8
0
 62
     0
 10
13.1862260265941202
 20
19.0716990743563706
 30
0.0
 11
18.5977890025480512
 21
15.9473317334527191
 31
0.0
  0
LINE
  5
11DB
  8
0
 62
     0
 10
16.5319044298661808
 20
12.7291146909950399
 30
0.0
 11
17.33798138141238
 21
14.1252809258832794
 31
0.0
  0
LINE
  5
11DC
  8
0
 62
     0
 10
18.351904429866849
 20
15.8814471607715202
 30
0.0
 11
17.5458274783206498
 21
14.4852809258832806
 31
0.0
  0
SOLID
  5
11DD
  8
0
 62
     0
 10
16.5059236677526506
 20
12.7441146909950405
 30
0.0
 11
16.557885191979711
 21
12.7141146909950393
 31
0.0
 12
16.4419044298661809
 22
12.5732301183138393
 32
0.0
 13
16.4419044298661809
 23
12.5732301183138393
 33
0.0
  0
SOLID
  5
11DE
  8
0
 62
     0
 10
18.3259236677533188
 20
15.8964471607715208
 30
0.0
 11
18.3778851919803685
 21
15.8664471607715196
 31
0.0
 12
18.4419044298668489
 22
16.0373317334527101
 32
0.0
 13
18.4419044298668489
 23
16.0373317334527101
 33
0.0
  0
INSERT
  5
11DF
  8
0
  2
*U33
 10
0.0
 20
0.0
 30
0.0
  0
POINT
  5
11E0
  8
DEFPOINTS
 62
     0
 10
11.1320994388569208
 20
15.6388474592174997
 30
0.0
  0
POINT
  5
11E1
  8
DEFPOINTS
 62
     0
 10
13.1320994388575905
 20
19.1029490743563706
 30
0.0
  0
POINT
  5
11E2
  8
DEFPOINTS
 62
     0
 10
18.4419044298668489
 20
16.0373317334527101
 30
0.0
  0
ENDBLK
  5
11CD
  8
0
  0
BLOCK
  8
0
  2
*U33
 70
     1
 10
0.0
 20
0.0
 30
0.0
  3
*U33
  1

  0
TEXT
  5
169A
  8
0
 62
     0
 10
16.82690442986652
 20
14.2152809258832793
 30
0.0
 40
0.18
  1
4.0000000
  0
ENDBLK
  5
169C
  8
0
  0
BLOCK
  8
0
  2
*U34
 70
     1
 10
0.0
 20
0.0
 30
0.0
  3
*U34
  1

  0
TEXT
  5
15FA
  8
0
 62
     0
 10
9.3376952683464456
 20
11.8593016859258409
 30
0.0
 40
0.18
  1
38°
  0
ENDBLK
  5
15FC
  8
0
  0
BLOCK
  8
0
  2
*U35
 70
     1
 10
0.0
 20
0.0
 30
0.0
  3
*U35
  1

  0
TEXT
  5
15FE
  8
0
 62
     0
 10
7.80534723009802
 20
12.7109885297434495
 30
0.0
 40
0.18
  1
128°
  0
ENDBLK
  5
1600
  8
0
  0
BLOCK
  8
0
  2
*U36
 70
     1
 10
0.0
 20
0.0
 30
0.0
  3
*U36
  1

  0
TEXT
  5
1602
  8
0
 62
     0
 10
7.8893990878058746
 20
12.6613043209427101
 30
0.0
 40
0.18
  1
52°
  0
ENDBLK
  5
1604
  8
0
  0
BLOCK
  8
0
  2
*U37
 70
     1
 10
0.0
 20
0.0
 30
0.0
  3
*U37
  1

  0
TEXT
  5
160A
  8
0
 62
     0
 10
16.6559230872920594
 20
14.1558030762872704
 30
0.0
 40
0.18
  1
4.2290000
  0
ENDBLK
  5
160C
  8
0
  0
BLOCK
  8
0
  2
*U38
 70
     1
 10
0.0
 20
0.0
 30
0.0
  3
*U38
  1

  0
TEXT
  5
160E
  8
0
 62
     0
 10
4.6858119300646042
 20
10.4884292762725693
 30
0.0
 40
0.18
  1
112.285218°
  0
ENDBLK
  5
1610
  8
0
  0
BLOCK
  8
0
  2
*U39
 70
     1
 10
0.0
 20
0.0
 30
0.0
  3
*U39
  1

  0
TEXT
  5
1612
  8
0
 62
     0
 10
12.2082797312097497
 20
7.983209158546952
 30
0.0
 40
0.18
  1
22.285218°
  0
ENDBLK
  5
1614
  8
0
  0
BLOCK
  8
0
  2
*U40
 70
     1
 10
0.0
 20
0.0
 30
0.0
  3
*U40
  1

  0
TEXT
  5
1616
  8
0
 62
     0
 10
8.9951549698315691
 20
11.5477231472647492
 30
0.0
 40
0.18
  1
60.000000°
  0
ENDBLK
  5
1618
  8
0
  0
BLOCK
  8
0
  2
*U41
 70
     1
 10
0.0
 20
0.0
 30
0.0
  3
*U41
  1

  0
TEXT
  5
161A
  8
0
 62
     0
 10
10.5002969137279401
 20
7.6196704631977781
 30
0.0
 40
0.18
  1
30.000000°
  0
ENDBLK
  5
161C
  8
0
  0
BLOCK
  8
0
  2
*U42
 70
     1
 10
0.0
 20
0.0
 30
0.0
  3
*U42
  1

  0
TEXT
  5
161E
  8
0
 62
     0
 10
23.2251397025195594
 20
19.100182225826039
 30
0.0
 40
0.18
  1
45.000000°
  0
ENDBLK
  5
1620
  8
0
  0
BLOCK
  8
0
  2
*U43
 70
     1
 10
0.0
 20
0.0
 30
0.0
  3
*U43
  1

  0
TEXT
  5
1622
  8
0
 62
     0
 10
23.2251397025195594
 20
19.100182225826039
 30
0.0
 40
0.18
  1
45.000000°
  0
ENDBLK
  5
1624
  8
0
  0
BLOCK
  8
0
  2
*U44
 70
     1
 10
0.0
 20
0.0
 30
0.0
  3
*U44
  1

  0
TEXT
  5
1626
  8
0
 62
     0
 10
22.8700782478366413
 20
15.0826599566426793
 30
0.0
 40
0.18
  1
45.000000°
  0
ENDBLK
  5
1628
  8
0
  0
BLOCK
  8
0
  2
*U45
 70
     1
 10
0.0
 20
0.0
 30
0.0
  3
*U45
  1

  0
TEXT
  5
162E
  8
0
 62
     0
 10
25.4100690436005117
 20
19.678896791327471
 30
0.0
 40
0.18
  1
1.1250000
  0
ENDBLK
  5
1630
  8
0
  0
BLOCK
  8
0
  2
*U46
 70
     1
 10
0.0
 20
0.0
 30
0.0
  3
*U46
  1

  0
TEXT
  5
1632
  8
0
 10
0.3595521173541414
 20
0.1913127320982354
 30
0.0
 40
0.2
  1
6 pitch
  0
ENDBLK
  5
1634
  8
0
  0
BLOCK
  8
0
  2
*U47
 70
     1
 10
0.0
 20
0.0
 30
0.0
  3
*U47
  1

  0
TEXT
  5
1636
  8
0
 10
3.0667161882977751
 20
0.3459396467245695
 30
0.0
 40
0.2
  1
8 pitch
  0
ENDBLK
  5
1638
  8
0
  0
BLOCK
  8
0
  2
*U48
 70
     1
 10
0.0
 20
0.0
 30
0.0
  3
*U48
  1

  0
TEXT
  5
163A
  8
0
 62
     0
 10
29.8492738476521389
 20
14.9577835447056398
 30
0.0
 40
0.18
  1
43.200000°
  0
ENDBLK
  5
163C
  8
0
  0
BLOCK
  8
0
  2
*U49
 70
     1
 10
0.0
 20
0.0
 30
0.0
  3
*U49
  1

  0
TEXT
  5
1642
  8
0
 62
     0
 10
33.2504834145655011
 20
16.8268560012499293
 30
0.0
 40
0.18
  1
1.3500000
  0
ENDBLK
  5
1644
  8
0
  0
BLOCK
  8
0
  2
*U50
 70
     1
 10
0.0
 20
0.0
 30
0.0
  3
*U50
  1

  0
TEXT
  5
1646
  8
0
 10
6.0705634368951831
 20
0.4614173553202462
 30
0.0
 40
0.2
  1
pitch 10
  0
ENDBLK
  5
1648
  8
0
  0
BLOCK
  8
0
  2
*U51
 70
     1
 10
0.0
 20
0.0
 30
0.0
  3
*U51
  1

  0
TEXT
  5
164A
  8
0
 62
     0
 10
37.4090764223251711
 20
15.2144507698253904
 30
0.0
 40
0.18
  1
48.000000°
  0
ENDBLK
  5
164C
  8
0
  0
BLOCK
  8
0
  2
*U52
 70
     1
 10
0.0
 20
0.0
 30
0.0
  3
*U52
  1

  0
TEXT
  5
1652
  8
0
 62
     0
 10
40.5567340308922226
 20
16.1706372059645211
 30
0.0
 40
0.18
  1
1.3335000
  0
ENDBLK
  5
1654
  8
0
  0
BLOCK
  8
0
  2
*U53
 70
     1
 10
0.0
 20
0.0
 30
0.0
  3
*U53
  1

  0
TEXT
  5
1656
  8
0
 62
     0
 10
45.1351057755455329
 20
16.9765614377266409
 30
0.0
 40
0.18
  1
56.250000°
  0
ENDBLK
  5
1658
  8
0
  0
BLOCK
  8
0
  2
*U54
 70
     1
 10
0.0
 20
0.0
 30
0.0
  3
*U54
  1

  0
TEXT
  5
165E
  8
0
 62
     0
 10
46.871199657764862
 20
17.5459715583494393
 30
0.0
 40
0.18
  1
1.0625000
  0
ENDBLK
  5
1660
  8
0
  0
BLOCK
  8
0
  2
*U55
 70
     1
 10
0.0
 20
0.0
 30
0.0
  3
*U55
  1

  0
TEXT
  5
1662
  8
0
 62
     0
 10
48.1938077120718233
 20
16.7107810382141118
 30
0.0
 40
0.18
  1
45.000000°
  0
ENDBLK
  5
1664
  8
0
  0
BLOCK
  8
0
  2
*U56
 70
     1
 10
0.0
 20
0.0
 30
0.0
  3
*U56
  1

  0
TEXT
  5
166A
  8
0
 62
     0
 10
53.2654264015131602
 20
18.0646844386608514
 30
0.0
 40
0.18
  1
0.8500000
  0
ENDBLK
  5
166C
  8
0
  0
BLOCK
  8
0
  2
*U57
 70
     1
 10
0.0
 20
0.0
 30
0.0
  3
*U57
  1

  0
TEXT
  5
166E
  8
0
 62
     0
 10
54.4645730262654624
 20
15.7867459632312208
 30
0.0
 40
0.18
  1
45.000000°
  0
ENDBLK
  5
1670
  8
0
  0
BLOCK
  8
0
  2
*U58
 70
     1
 10
0.0
 20
0.0
 30
0.0
  3
*U58
  1

  0
TEXT
  5
1676
  8
0
 62
     0
 10
58.9584627668323975
 20
16.655155705008081
 30
0.0
 40
0.18
  1
1.2083158
  0
ENDBLK
  5
1678
  8
0
  0
BLOCK
  8
0
  2
*U59
 70
     1
 10
0.0
 20
0.0
 30
0.0
  3
*U59
  1

  0
TEXT
  5
167A
  8
0
 62
     0
 10
63.5882955444284335
 20
17.85324983961209
 30
0.0
 40
0.18
  1
45.000000°
  0
ENDBLK
  5
167C
  8
0
  0
BLOCK
  8
0
  2
*U60
 70
     1
 10
0.0
 20
0.0
 30
0.0
  3
*U60
  1

  0
TEXT
  5
16A2
  8
0
 10
8.7691285980290843
 20
0.5880521598931266
 30
0.0
 40
0.2
  1
pitch 12
  0
ENDBLK
  5
16A4
  8
0
  0
BLOCK
  8
0
  2
*U61
 70
     1
 10
0.0
 20
0.0
 30
0.0
  3
*U61
  1

  0
TEXT
  5
16A6
  8
0
 10
0.7700191376096372
 20
2.3741403584505689
 30
0.0
 40
0.2
  1
pitch 16
  0
ENDBLK
  5
16A8
  8
0
  0
BLOCK
  8
0
  2
*U62
 70
     1
 10
0.0
 20
0.0
 30
0.0
  3
*U62
  1

  0
TEXT
  5
16AA
  8
0
 10
3.057944116529312
 20
2.408862439318634
 30
0.0
 40
0.2
  1
pitch 20
  0
ENDBLK
  5
16AC
  8
0
  0
BLOCK
  8
0
  2
*U63
 70
     1
 10
0.0
 20
0.0
 30
0.0
  3
*U63
  1

  0
TEXT
  5
16AE
  8
0
 10
5.2596107647469523
 20
2.439774045135084
 30
0.0
 40
0.2
  1
pitch 24
  0
ENDBLK
  5
16B0
  8
0
  0
BLOCK
  8
0
  2
*U64
 70
     1
 10
0.0
 20
0.0
 30
0.0
  3
*U64
  1

  0
TEXT
  5
16B2
  8
0
 10
7.3756015716989092
 20
2.402891486328786
 30
0.0
 40
0.2
  1
pitch 32
  0
ENDBLK
  5
16B4
  8
0
  0
BLOCK
  8
0
  2
*U65
 70
     1
 10
0.0
 20
0.0
 30
0.0
  3
*U65
  1

  0
TEXT
  5
16B6
  8
0
 10
1.024971791128507
 20
5.9317244275304004
 30
0.0
 40
0.2
  1
NOTE: These were derived from Inventor 2008
  0
TEXT
  5
16B7
  8
0
 10
1.024971791128507
 20
5.5983910941970674
 30
0.0
 40
0.2
  1
(excluding the 24 pitch) and have pressure
  0
TEXT
  5
16B8
  8
0
 10
1.024971791128507
 20
5.2650577608637343
 30
0.0
 40
0.2
  1
angles of 20 degrees.
  0
ENDBLK
  5
16BA
  8
0
  0
BLOCK
  8
0
  2
*U66
 70
     1
 10
0.0
 20
0.0
 30
0.0
  3
*U66
  1

  0
TEXT
  5
16BC
  8
0
 10
0.9395773914231996
 20
4.7725969732238864
 30
0.0
 40
0.2
  1
NOTE: To add multiple teeth use the inventor
  0
TEXT
  5
16BD
  8
0
 10
0.9395773914231996
 20
4.4392636398905534
 30
0.0
 40
0.2
  1
"copy" tool, select the red part of the gear
  0
TEXT
  5
16BE
  8
0
 10
0.9395773914231996
 20
4.1059303065572212
 30
0.0
 40
0.2
  1
and press enter.  Then select as your
  0
TEXT
  5
16BF
  8
0
 10
0.9395773914231996
 20
3.772596973223886
 30
0.0
 40
0.2
  1
basepoint the left most red point, and your
  0
TEXT
  5
16C0
  8
0
 10
0.9395773914231996
 20
3.4392636398905521
 30
0.0
 40
0.2
  1
second point to be the right most red point.
  0
ENDBLK
  5
16C2
  8
0
  0
BLOCK
  8
0
  2
*U67
 70
     1
 10
0.0
 20
0.0
 30
0.0
  3
*U67
  1

  0
TEXT
  5
16C4
  8
0
 10
10.24782351886995
 20
3.4765757398997601
 30
0.0
 40
0.2
  1
base
  0
ENDBLK
  5
16C6
  8
0
  0
BLOCK
  8
0
  2
*U68
 70
     1
 10
0.0
 20
0.0
 30
0.0
  3
*U68
  1

  0
TEXT
  5
16C8
  8
0
 10
11.8684682952435594
 20
3.5018079310369661
 30
0.0
 40
0.2
  1
second
  0
ENDBLK
  5
16CA
  8
0
  0
ENDSEC
  0
SECTION
  2
ENTITIES
  0
ARC
  5
63A
  8
VISIBLE__ANSI_
 10
-1.1271803281479631
 20
0.4780324901643064
 30
0.0
 40
1.97421600595196
 50
11.5059066674068902
 51
23.0446656755318493
  0
ARC
  5
63B
  8
VISIBLE__ANSI_
 10
0.6213220347908753
 20
-2.915105679228517
 30
0.0
 40
4.1665000000004877
 50
89.0625000000005969
 51
90.9375000000003126
  0
ARC
  5
63C
  8
VISIBLE__ANSI_
 10
2.3698243977295981
 20
0.4780324901644343
 30
0.0
 40
1.9742160059518861
 50
156.9553343244710959
 51
168.4940933325964068
  0
INSERT
  5
641
  8
0
  2
*U46
 10
0.0
 20
0.0
 30
0.0
  0
ARC
  5
650
  8
VISIBLE__ANSI_
 10
3.0216200742073469
 20
0.9378213689409625
 30
0.0
 40
0.9171788343458899
 50
4.0581720265394221
 51
22.6826068461227486
  0
ARC
  5
651
  8
VISIBLE__ANSI_
 10
3.8126587573890149
 20
0.1678644599154779
 30
0.0
 40
1.1249999999999001
 50
87.1874999999971436
 51
92.8124999999975415
  0
ARC
  5
652
  8
VISIBLE__ANSI_
 10
4.60369744057079
 20
0.9378213689409731
 30
0.0
 40
0.9171788343458886
 50
157.3173931538777026
 51
175.9418279734613861
  0
INSERT
  5
657
  8
0
  2
*U47
 10
0.0
 20
0.0
 30
0.0
  0
ARC
  5
74D
  8
VISIBLE__ANSI_
 10
5.9518933959645821
 20
0.8639800671024032
 30
0.0
 40
0.9239867622092731
 50
8.0716948207453605
 51
22.8677070626892416
  0
ARC
  5
74E
  8
VISIBLE__ANSI_
 10
6.7608545025654321
 20
-0.1262881986103306
 30
0.0
 40
1.3500000000003241
 50
88.1999999999981981
 51
91.7999999999972687
  0
ARC
  5
74F
  8
VISIBLE__ANSI_
 10
7.5698156091663371
 20
0.8639800671024371
 30
0.0
 40
0.9239867622092155
 50
157.132292937311405
 51
171.9283051792558012
  0
INSERT
  5
754
  8
0
  2
*U50
 10
0.0
 20
0.0
 30
0.0
  0
ARC
  5
1262
  8
VISIBLE__ANSI_
 10
8.3790650493886432
 20
1.0449681046968631
 30
0.0
 40
0.8337229153518549
 50
9.2681282646318053
 51
22.9320333526649307
  0
ARC
  5
1263
  8
VISIBLE__ANSI_
 10
9.1119899706776835
 20
0.0367759519219284
 30
0.0
 40
1.3335000000001691
 50
88.5000000000009237
 51
91.5000000000002842
  0
ARC
  5
1264
  8
VISIBLE__ANSI_
 10
9.8449148919666634
 20
1.0449681046968771
 30
0.0
 40
0.8337229153518345
 50
157.0679666473355098
 51
170.7318717353682018
  0
INSERT
  5
1269
  8
0
  2
*U60
 10
0.0
 20
0.0
 30
0.0
  0
ARC
  5
131C
  8
VISIBLE__ANSI_
 10
11.4073163172349403
 20
1.0881808204455219
 30
0.0
 40
0.2842451046993866
 50
7.7395967060985909
 51
22.8066593387608805
  0
ARC
  5
131D
  8
VISIBLE__ANSI_
 10
11.6560382939618403
 20
0.792078328989624
 30
0.0
 40
0.4065000000000931
 50
88.1250000000003126
 51
91.8750000000000568
  0
ARC
  5
131E
  8
VISIBLE__ANSI_
 10
11.9047602706887297
 20
1.088180820445515
 30
0.0
 40
0.2842451046993817
 50
157.1933406612378121
 51
172.2604032939001968
  0
LINE
  5
131F
  8
0
 62
     1
 10
11.68897205311257
 20
1.1264603971515841
 30
0.0
 11
11.7212795348110994
 21
1.1264603971515841
 31
0.0
  0
ARC
  5
1320
  8
VISIBLE__ANSI_
 62
     1
 10
11.5054913172349398
 20
1.0881808204455219
 30
0.0
 40
0.2842451046993866
 50
7.7395967060985909
 51
22.8066593387608805
  0
ARC
  5
1321
  8
VISIBLE__ANSI_
 62
     1
 10
11.7542132939618398
 20
0.792078328989624
 30
0.0
 40
0.4065000000000931
 50
88.1250000000003126
 51
91.8750000000000568
  0
ARC
  5
1322
  8
VISIBLE__ANSI_
 62
     1
 10
12.0029352706887291
 20
1.088180820445515
 30
0.0
 40
0.2842451046993817
 50
157.1933406612378121
 51
172.2604032939001968
  0
INSERT
  5
1323
  8
0
  2
*U64
 10
3.7236083050454591
 20
-1.6108494754171681
 30
0.0
  0
LINE
  5
133F
  8
0
 62
     1
 10
9.2019040943817743
 20
1.1792432163802571
 30
0.0
 11
9.2838748469735517
 21
1.1792432163802571
 31
0.0
  0
ARC
  5
1340
  8
VISIBLE__ANSI_
 62
     1
 10
8.6408640493886431
 20
1.0449681046968631
 30
0.0
 40
0.8337229153518549
 50
9.2681282646318053
 51
22.9320333526649307
  0
ARC
  5
1341
  8
VISIBLE__ANSI_
 62
     1
 10
9.3737889706776834
 20
0.0367759519219284
 30
0.0
 40
1.3335000000001691
 50
88.5000000000009237
 51
91.5000000000002558
  0
ARC
  5
1342
  8
VISIBLE__ANSI_
 62
     1
 10
10.1067138919666597
 20
1.0449681046968771
 30
0.0
 40
0.8337229153518345
 50
157.0679666473355098
 51
170.7318717353682018
  0
LINE
  5
1343
  8
0
 62
     1
 10
6.8667263550488116
 20
0.9937190115684579
 30
0.0
 11
6.9691416500821601
 21
0.9937190115684579
 31
0.0
  0
ARC
  5
1344
  8
VISIBLE__ANSI_
 62
     1
 10
6.2660523959645822
 20
0.8639800671024032
 30
0.0
 40
0.9239867622092731
 50
8.0716948207453605
 51
22.8677070626892416
  0
ARC
  5
1345
  8
VISIBLE__ANSI_
 62
     1
 10
7.075013502565433
 20
-0.1262881986103306
 30
0.0
 40
1.3500000000003241
 50
88.1999999999981981
 51
91.7999999999972687
  0
ARC
  5
1346
  8
VISIBLE__ANSI_
 62
     1
 10
7.8839746091663372
 20
0.8639800671024371
 30
0.0
 40
0.9239867622092155
 50
157.132292937311405
 51
171.9283051792558012
  0
LINE
  5
1347
  8
0
 62
     1
 10
3.9364992778293901
 20
1.0027294343256541
 30
0.0
 11
4.0815172369487476
 21
1.0027294343256541
 31
0.0
  0
ARC
  5
1348
  8
VISIBLE__ANSI_
 62
     1
 10
3.4143190742073481
 20
0.9378213689409625
 30
0.0
 40
0.9171788343458899
 50
4.0581720265394221
 51
22.6826068461227486
  0
ARC
  5
1349
  8
VISIBLE__ANSI_
 62
     1
 10
4.2053577573890148
 20
0.1678644599154779
 30
0.0
 40
1.1249999999999001
 50
87.1874999999971436
 51
92.8124999999975415
  0
ARC
  5
134A
  8
VISIBLE__ANSI_
 62
     1
 10
4.9963964405707912
 20
0.9378213689409731
 30
0.0
 40
0.9171788343458886
 50
157.3173931538777026
 51
175.9418279734613861
  0
LINE
  5
134B
  8
0
 62
     1
 10
0.8073621220032565
 20
0.8718272929738827
 30
0.0
 11
0.9588809475784291
 21
0.8718272929738827
 31
0.0
  0
ARC
  5
134C
  8
VISIBLE__ANSI_
 62
     1
 10
-0.6035813281479632
 20
0.4780324901643064
 30
0.0
 40
1.97421600595196
 50
11.5059066674068902
 51
23.0446656755318493
  0
ARC
  5
134D
  8
VISIBLE__ANSI_
 62
     1
 10
1.144921034790874
 20
-2.915105679228517
 30
0.0
 40
4.1665000000004877
 50
89.0625000000005969
 51
90.9375000000003126
  0
ARC
  5
134E
  8
VISIBLE__ANSI_
 62
     1
 10
2.893423397729598
 20
0.4780324901644343
 30
0.0
 40
1.9742160059518861
 50
156.9553343244710959
 51
168.4940933325964068
  0
INSERT
  5
13A0
  8
0
  2
*U65
 10
0.0
 20
0.0
 30
0.0
  0
INSERT
  5
13A1
  8
0
  2
*U66
 10
0.0
 20
0.0
 30
0.0
  0
ARC
  5
13AF
  8
VISIBLE__ANSI_
 10
9.074584580506988
 20
3.7713692696862839
 30
0.0
 40
1.97421600595196
 50
11.5059066674068795
 51
23.0446656755318493
  0
ARC
  5
13B0
  8
VISIBLE__ANSI_
 10
10.8230869434458192
 20
0.3782311002934611
 30
0.0
 40
4.1665000000004877
 50
89.0625000000005969
 51
90.9375000000003126
  0
ARC
  5
13B1
  8
VISIBLE__ANSI_
 10
12.5715893063845403
 20
3.7713692696864118
 30
0.0
 40
1.9742160059518861
 50
156.9553343244710106
 51
168.4940933325964068
  0
LINE
  5
13B2
  8
0
 62
     1
 10
11.0091270306582096
 20
4.1651640724958607
 30
0.0
 11
11.1606458562333799
 21
4.1651640724958607
 31
0.0
  0
ARC
  5
13B3
  8
VISIBLE__ANSI_
 62
     1
 10
9.5981835805069888
 20
3.7713692696862839
 30
0.0
 40
1.97421600595196
 50
11.5059066674068795
 51
23.0446656755318493
  0
ARC
  5
13B4
  8
VISIBLE__ANSI_
 62
     1
 10
11.34668594344582
 20
0.3782311002934611
 30
0.0
 40
4.1665000000004877
 50
89.0625000000005969
 51
90.9375000000003126
  0
ARC
  5
13B5
  8
VISIBLE__ANSI_
 62
     1
 10
13.09518830638455
 20
3.7713692696864118
 30
0.0
 40
1.9742160059518861
 50
156.9553343244710106
 51
168.4940933325964068
  0
INSERT
  5
13B6
  8
0
  2
*U67
 10
0.0
 20
0.0
 30
0.0
  0
INSERT
  5
13B7
  8
0
  2
*U68
 10
0.0
 20
0.0
 30
0.0
  0
LINE
  5
13BF
  8
0
 10
11.0091270306582096
 20
4.1651640724958598
 30
0.0
 11
10.7912018426459806
 21
3.6674049873238901
 31
0.0
  0
LINE
  5
13C0
  8
0
 10
11.0091270306582096
 20
4.1651640724958572
 30
0.0
 11
10.9544264211855307
 21
4.1187233603928064
 31
0.0
  0
LINE
  5
13C1
  8
0
 10
11.0091270306582096
 20
4.1651640724958563
 30
0.0
 11
11.0121068150006796
 21
4.0934701585101241
 31
0.0
  0
LINE
  5
13C2
  8
0
 10
11.5327260306581998
 20
4.1651640724958598
 30
0.0
 11
11.8804540390728999
 21
3.6926168475262089
 31
0.0
  0
LINE
  5
13C3
  8
0
 10
11.5327260306581998
 20
4.1651640724958598
 30
0.0
 11
11.5327260306581998
 21
4.1111116766896032
 31
0.0
  0
LINE
  5
13C4
  8
0
 10
11.5327260306581998
 20
4.165164072495859
 30
0.0
 11
11.5843319150632897
 21
4.1490863180766357
 31
0.0
  0
ENDSEC
  0
EOF
